» » »

Candlebox - Far Behind Bass

Artists:  A B C D E F G H I J K L M N O P Q R S T U V W X Y Z # 

Far Behind Bass

(ver. 3) Click to play this song!
Candlebox
 Rating:
4/5 (4 votes)

 Far Behind lessons Tabs too difficult? Try these video lessons and learn fast
 
                Ok since i didn't really see a version of this song that i liked i hacked together this, 
of its from other ones that people did and some i wrote myself... Rate this and what 
and have fun with the song... great song to just jam out to...


Verse
G|-----------------------------------------------|
D|-----------------------------------------------|
A|---------------5-5----3-3-3-2-|<---------------|he changes this to
E|-3-3/5--0-00------------------| A|--3-3-2-0----| every other

Chorus
G
G|---------------------------------------|
D|---------------------------------------|
A|---------------------------------------|
E|-3--------3-3-3----3-0-------0-0-------|

D
G|---------------------------------------|
D|---------------------------------------|
A|-5------5-------0-2-3--------3-3-2-----|
E|---------------------------------------|

Solo
|---------------------|--------------------|--------------------------|
|---------------------|--------------------|--------------------------|
|---------------------|----------------2-3-|-5---5-5--5---5-5--5—-0-2-|
|-3--3--3-3--3-3--3-2-|-0--0--0-0--0-0-----|--------------------------|

|-------------------|-------------------------|------------------|
|-------------------|-------------------------|------------------|
|-3---3-3--3--3-3-2-|-------------------------|----------------0-|
|-------------------|-3---3--0-3--3-3—-3--3-2-|-0--0--0-0--0-0---|


|-------------|-----------------------|
|-------------|-----------------------|
|-5---5---0-2-|-3---3--3-3--3-3--3--3-|
|-------------|-----------------------|


Bridge (I've seen this a few ways but i like mine the best *just a blues scale*)
G|----------------------|
D|-2--------------------|
A|--2-1-0---------------|
E|--------3-------------|
            
Submit corrections


        Far Behind lessons Hard to play? Try these video lessons and learn fast Far Behind lessons
        
↑ Back to top | Tablatures and chords for acoustic guitar and electric guitar, ukulele, drums are parodies/interpretations of the original songs. You may use it for private study, scholarship, research or language learning purposes only