» » »

Candlebox - Cover Me Tabs

Artists:  A B C D E F G H I J K L M N O P Q R S T U V W X Y Z # 

Cover Me Tabs

(ver. 3) Click to play this song!
Candlebox
 Rating:
4.6/5 (9 votes)

 Cover Me lessons Tabs too difficult? Try these video lessons and learn fast
 
                -----------------------------------------------------------------------------
-----------------------------------------------------------------------------

Yahoo!:  tr1kst4nce

Tuning: E A D G B E (standard)

Since the other tab versions of this song that were submitted are a bit 
simplified I thought I would tab this out accurately down to the detail.  
There by giving you the option on which way you'd rather play it. :)

In case you're just learning how to play I've included the chord pattern as 
well as finger positioning for your convenience.  For example below, with 
the Em (E minor) chord... you will use your 2nd(middle) and 3rd (ring finger) 
both on the 2nd fret leaving the other 4 strings open signified by a "0" 
meaning no fret contact.  Enjoy! :)


   Em         G         D       C add9
 |--0--|  4|--3--|  2|--2--|   |--0--|
 |--0--|  3|--3--|  3|--3--|  3|--3--|
 |--0--|   |--0--|  1|--2--|   |--0--|
3|--2--|   |--0--|   |--0--|  1|--2--|
2|--2--|  1|--2--|   |-----|  2|--3--|
 |--0--|  2|--3--|   |-----|   |--0--|


 v  down stroke
 ^  up stroke
 p  pull-off
 /  slide up
 \  slide down


I've given you a pretty accurate count for the strum pattern.  But if you 
listen to the song a few times in a row you'll get it and can play along 
with it.  Or just do it your own way.  Have fun! :)


       E         G                D           C add9
       v   ^ v ^ v   ^  v  v  v ^ v   ^ v ^   v   ^  ^ v ^ v ^    
e|-----0---0-0-0-3---3-----3--3-3-2---2-2-2---0---0--0-0-0-0-0--------------|
B|-----0---0-0-0-3---3-----3--3-3-3---3-3-3---3---3--3-3-3-3-3--------------|
G|-----0---0-0-0-0---0--0--0--0-0-2---2-2-2---0---0--0-0-0-0-0--------------|
D|-----2---2-2-2-0---0--0--0--0-0-0---0-0-0---2---2--2-2-2-2-2--------------|
A|-----2---2-2-2-2---2--2-----2-2-------------3---3--3-3-3-3-3--------------|
E|-----0---0-0-0-3---3--------3-3-------------0---0--0-0-0-0-0--------------|

       E         G                D            C add9
       v   ^ v ^ v   ^  v  v  v ^ v  v ^   ^   v      
e|-----0---0-0-0-3---3-----3--3-3-2--2-3p2-2---0----------------------------|
B|-----0---0-0-0-3---3-----3--3-3-3--3-3---3---3----------------------------|
G|-----0---0-0-0-0---0--0--0--0-0-2--2-----2---0----------------------------|
D|-----2---2-2-2-0---0--0--0--0-0-0--0-----0---2----------------------------|
A|-----2---2-2-2-2---2--2-----2-2--------------3----------------------------|
E|-----0---0-0-0-3---3--------3-3--------------0----------------------------|


***PAUSE***


       E         G                D           C add9
       v   ^ v ^ v   ^  v  v  v ^ v   ^ v ^   v   ^  ^ v ^ v ^    
e|-----0---0-0-0-3---3-----3--3-3-2---2-2-2---0---0--0-0-0-0-0--------------|
B|-----0---0-0-0-3---3-----3--3-3-3---3-3-3---3---3--3-3-3-3-3--------------|
G|-----0---0-0-0-0---0--0--0--0-0-2---2-2-2---0---0--0-0-0-0-0--------------|
D|-----2---2-2-2-0---0--0--0--0-0-0---0-0-0---2---2--2-2-2-2-2--------------|
A|-----2---2-2-2-2---2--2-----2-2-------------3---3--3-3-3-3-3--------------|
E|-----0---0-0-0-3---3--------3-3-------------0---0--0-0-0-0-0--------------|

       E         G                D            C add9
       v   ^ v ^ v   ^  v  v  v ^ v  v ^   ^   v  (arpeggio)    
e|-----0---0-0-0-3---3-----3--3-3-2--2-3p2-2---0---0-----0------------------|
B|-----0---0-0-0-3---3-----3--3-3-3--3-3---3---3-----3-----3----------------|
G|-----0---0-0-0-0---0--0--0--0-0-2--2-----2---0-------0-----0--------------|
D|-----2---2-2-2-0---0--0--0--0-0-0--0-----0---2---------------2------------|
A|-----2---2-2-2-2---2--2-----2-2--------------3----------------------------|
E|-----0---0-0-0-3---3--------3-3--------------0-----------------0----------|

       E         G                D           C add9
       v   ^ v ^ v   ^  v  v  v ^ v   ^ v ^   v   ^  ^ v ^ v ^    
e|-----0---0-0-0-3---3-----3--3-3-2---2-2-2---0---0--0-0-0-0-0--------------|
B|-----0---0-0-0-3---3-----3--3-3-3---3-3-3---3---3--3-3-3-3-3--------------|
G|-----0---0-0-0-0---0--0--0--0-0-2---2-2-2---0---0--0-0-0-0-0--------------|
D|-----2---2-2-2-0---0--0--0--0-0-0---0-0-0---2---2--2-2-2-2-2--------------|
A|-----2---2-2-2-2---2--2-----2-2-------------3---3--3-3-3-3-3--------------|
E|-----0---0-0-0-3---3--------3-3-------------0---0--0-0-0-0-0--------------|

       E         G                D            C add9
       v   ^ v ^ v   ^  v  v  v ^ v  v ^   ^   v      
e|-----0---0-0-0-3---3-----3--3-3-2--2-3p2-2---0----------------------------|
B|-----0---0-0-0-3---3-----3--3-3-3--3-3---3---3----------------------------|
G|-----0---0-0-0-0---0--0--0--0-0-2--2-----2---0----------------------------|
D|-----2---2-2-2-0---0--0--0--0-0-0--0-----0---2----------------------------|
A|-----2---2-2-2-2---2--2-----2-2--------------3----------------------------|
E|-----0---0-0-0-3---3--------3-3--------------0----------------------------|


***CHORUS***

     D            C add9                     
     v  v ^   ^   v   ^  ^ v ^ v ^                            
e|---2--2-3p2-2---0---0--0-0-0-0-0----|
B|---3--3-3---3---3---3--3-3-3-3-3----|
G|---2--2-2---2---0---0--0-0-0-0-0----|
D|---0--0-0---0---2---2--2-2-2-2-2----|  REPEAT 3x's
A|----------------3---3--3-3-3-3-3----|
E|----------------0---0--0-0-0-0-0----|

     D (same pattern as above but add this extra part at the end)
     v  v ^   ^
e|---2--2-3p2-2-------------------------------------------------------------|
B|---3--3-3---3-------------------------------------------------------------|
G|---2--2-2---2----------0-----0-----0----0---0---0-------------------------|
D|---0--0-0---0--------0-----0-----0----0-----------------------------------|
A|-------------------3-----2-----3----2-------------------------------------|
E|------------------------------------------3---2---0-----------------------|


***UNDER THE SOLO*** (yes... its right... trust me)

e|----------------------------|
B|----------------------------|
G|----------------------------|
D|---2---2-5\4---5---5/7\5----|  REPEAT SEVERAL TIMES
A|---2---2-5\4---5---5/7\5----|
E|---0---0-3\2---3---3/5\3----|


***AFTER SOLO***

     D            C add9                     
                     v  v ^   ^   v   ^  ^ v ^ v ^              
e|-------------------2--2-3p2-2---0---0--0-0-0-0-0----|
B|-------------------3--3-3---3---3---3--3-3-3-3-3----|
G|-------------------2--2-2---2---0---0--0-0-0-0-0----|
D|-------------------0--0-0---0---2---2--2-2-2-2-2----|  REPEAT UNTIL END
A|--------------------------------3---3--3-3-3-3-3----|
E|--------------------------------0---0--0-0-0-0-0----|
 ...branded a broken mannnn

That's pretty much it... listen and play along with the song and you should be fine.  

=============================================================================
            
Submit corrections


        Cover Me lessons Hard to play? Try these video lessons and learn fast Cover Me lessons
        
↑ Back to top | Tablatures and chords for acoustic guitar and electric guitar, ukulele, drums are parodies/interpretations of the original songs. You may use it for private study, scholarship, research or language learning purposes only