Home » C » Cancer »

Cancer - Cfc Cancer Fucking Cancer Tabs

Artists:  A B C D E F G H I J K L M N O P Q R S T U V W X Y Z # 

Cfc Cancer Fucking Cancer Tabs

(ver. 1) Click to play this song!
Cancer
 Rating:
4/5 (4 votes)
                Cancer-C.F.C.(Cancer f**king Cancer)

Special Legend Key:

Slide-/
Plam Mute-...
Slight Palm Mute,,,

Tuning Is D G C F A D

Riff 1

D---------------------------------|
A---------------------------------|
F---------------------------------|
C---------------------------------|
G-22222-3-22222-4-22222-777766666-|
D-00000-1-00000-2-00000-555544444-|

,,,,, ,,,,, ,,,,, ,,,,,,,,,

Riff 2

D|---------------------------------------|
A|---------------------------------------|
F|---------------------------------------|
C|---------------------------------------|
G|22222-3-22222-4--22222--5--------------| Stop 4 Stop
D|00000-1-00000-2--00000--3--------------| Stop2 Stop

,,,,, ,,,,, ,,,,, ,, ,,, ,,, ,,,

Riff 3 x2

D--------------------------------|
A--------------------------------|
F--------------------------------|
C--------------------------------|
G-22222-3-22222-4-22222-77776666-|
D-00000-1-00000-2-00000-55554444-|

,,,,, ,,,,, ,,,,, ,,,,,

Riff 4

D--------------------|
A--------------------|
F--------------------|
C--------------------|
G-------2------------|
D--0-----------------|

,,, ,,, ,,, ,,, ,,, ,,,

riff 5 1:51

D----------------------------------|
A----------------------------------|
F----------------------------------|
C----------------------------------|
G-----2-----3----2----3----7---8---|
D--0------1---0-----1----5---6-----|

,,, ,,, ,,, ,,, ,,, ,,, ,,, ,

Riff 1 Under Solo Play Till 2:42

2:42 Riff 6

D--------------------------|
A--------------------------|
F--------------------------|
C--------------------------|
G----------5---------------|
D-----3--------------------|

Repeat Many times

That's all,If Anything is wrong Please Correct it
            
Submit corrections

↑ Back to top | Tablatures and chords for acoustic guitar and electric guitar, ukulele, drums are parodies/interpretations of the original songs. You may use it for private study, scholarship, research or language learning purposes only