» » »

Camp Kill Yourself - My Promscious Daughter Bass

Artists:  A B C D E F G H I J K L M N O P Q R S T U V W X Y Z # 

My Promscious Daughter Bass

(ver. 1) Click to play this song!
Camp Kill Yourself
 Rating:
4/5 (4 votes)
    My Promscious Daughter lessons Tabs too difficult? Try these video lessons and learn fast
                Intro and Verse
G------------------
D------------------
A--5-5---8-8--8-8--
E------------------

G------------------------
D------------------------
A--55555555--88888888----
E------------------------

Pre Solo
G-------------------
D-------------------
A------------3------
E--0-0000000--------


Bass Solo
G---------------------------------
D------7-7-5-5-3-5-3-5-5-3-5------
A--3h5---------------3-------3----
E---------------------------------

After solo
G------7-4-------------------
D----------7---3-5-3/5-------
A--5---------5---------5-----
E----------------------------

Make sure you listen to the song for timing and how many times these parts are played.

Rate this tab!
            
Submit corrections

↑ Back to top | Tablatures and chords for acoustic guitar and electric guitar, ukulele, drums are parodies/interpretations of the original songs. You may use it for private study, scholarship, research or language learning purposes only