Home » C » Camila »

Camila - Dejarte De Amar Tabs

Artists:  A B C D E F G H I J K L M N O P Q R S T U V W X Y Z # 

Dejarte De Amar Tabs

(ver. 1) Click to play this song!
Camila
[Intro]

Dm - A - C - G

e|---------------------------------------------------------------------------|
B|---------------------------------------------------------------------------|
G|------------7~-------------7/9(n)-10~---------------7~---------------------|
D|---------------------------------------------------------------------------|
A|---------------------------------------------------------------------------|
E|---------------------------------------------------------------------------|

D5 - A5 - C5 - G5 |Guitarra electrica
Dm - A - C - G |Piano y/o Guitarra acustica

[Verso I]

Dm           A         C               G
Juras que, veras mi corazon cayendo a Tierra.
Dm              A          C              G
Piensas que sin Ti, la Soledad gano la Guerra. | En esta linea, la guitarra la TAB de abajo.
D5                           A5
Quemare toda la ciudad antes de caer, no me hundire jamas,
   C5                     C5-G5
no voy a caminar hacia el abismo,
         A#5
///no soy el mismo///

e|-------------------------------------|
B|-------------------------------------|
G|------------7~-------------9~--------|
D|-------------------------------------|
A|-------------------------------------|
E|-------------------------------------|

[Coro]

D5                 F#5                      Bm
Hoy me quiero perdornar y curarme con el tiempo
                           A5              G5               D5
escapar de aqui, renunciar a ti, aceptar que no fuiste para mi,
                F#5                     Bm
quisiera continuar, nunca haberte conocido, pero aqui estas
              A5                                  G5
tengo que aceptar que me cuesta cambiar lo que siento
                D5   A  C  G (A#)
y dejarte de amar...


e|------------------------------------------------------|
B|------------------------------------------------------|
G|--------7/9---7~--------7/9~--------7/9-------7~------|
D|------------------------------------------------------|
A|------------------------------------------------------|
E|------------------------------------------------------|

[Verso II]

Dm            A            C           G
Miro a contraluz y asi me voy desvaneciendo,
Dm           A           C             G
Solo nos quedo dolor flotando en el silencio | En esta linea, la guitarra la TAB de abajo.
 D5                           A5
Quemare toda la ciudad antes de caer, no me hundire jamas,
     C5                       G5
No voy a caminar hacia el abismo,
        A#5
///no soy el mismo///


e|-------------------------------------|
B|-------------------------------------|
G|----10~-----------------------7~-----|
D|-------------------------------------|
A|-------------------------------------|
E|-------------------------------------|

D5                 F#5                      Bm
Hoy me quiero perdornar y curarme con el tiempo
                           A5              G5               D5
escapar de aqui, renunciar a ti, aceptar que no fuiste para mi,
                F#5                     Bm
quisiera continuar, nunca haberte conocido, pero aqui estas
              A5                                  G5
tengo que aceptar que me cuesta cambiar lo que siento
                D5   A  C  G (A#)
y dejarte de amar...



e|--------------------------------------------------------------|
B|--------------------------------------------------------------|
G|--------7/9---7~--------7/9---------7/9------7~--/9--7/9--10--|
D|--------------------------------------------------------------|
A|--------------------------------------------------------------|
E|--------------------------------------------------------------|

[Solo] 

1era Opcion, Original de la cancion

e|-------------------11h13b14br---------------------------------|
B|--11h13b14br-----------------------11----13-------------------|
G|----------------------------------------------10/12~----------|
D|--------------------------------------------------------------|
A|--------------------------------------------------------------|
E|--------------------------------------------------------------|

[Solo] 

2da Opcion, usando solo la segunda cuerda y al final la tercera

e|--------------------------------------------------------------|
B|--11h13b14br-------14h16b17br-------11----13------------------|
G|----------------------------------------------10/12~----------|
D|--------------------------------------------------------------|
A|--------------------------------------------------------------|
E|--------------------------------------------------------------|            
Submit corrections

↑ Back to top | Tablatures and chords for acoustic guitar and electric guitar, ukulele, drums are parodies/interpretations of the original songs. You may use it for private study, scholarship, research or language learning purposes only