Home » C » Camel »

Camel - Mystic Queen Bass

Artists:  A B C D E F G H I J K L M N O P Q R S T U V W X Y Z # 

Mystic Queen Bass

(ver. 2) Click to play this song!
Camel
 Rating:
4.4/5 (7 votes)
                INTRO
******
G|-----14-14-14-12-10----|---------------|-----14-14-14-12-10---s-|-----|
D|-12-----------------12-|---7-7-7-5-----|-12-----------------12\-|-----|
A|-----------------------|-5---------8-5-|------------------------|-5~~-|
E|-----------------------|---------------|------------------------|-----|


--------------------
00:25
VERSE 1
********
  Have you seen the mystic queen..................
G|---------|----------------|-----------|---------------------|
D|-----s---|--s-7---7-------|-----------|--s-7-----7-7--7---7-|
A|-5--5\-1-|-1\-------5-3-1-|-1-----1-1-|-1\-----7--------7---|
E|---------|----------------|-----1-----|---------------------|


--------------------
00:40
VERSE 2
********
  If you like I'll take you there.................
G|---------|----------------|-----------|--------------|
D|-----s---|--s-7---7-------|-----------|--s-7-----7-7-|
A|-5--5\-1-|-1\-------5-3-1-|-1-----1-1-|-1\-----7-----|
E|---------|----------------|-----1-----|--------------|


--------------------
00:54
ORGAN
******
G|-----------|----------------|-------|-------------|--------------------|-5-----|
D|-----------|----------------|-3-4-5-|-------------|--s-----------------|---5-3-|
A|-----------|-5-3--3---1-3-3-|-------|-------------|-2\3-5--3--3--1-3-3-|-------|
E|-3---1-3-3-|----------------|-------|-3--3--1-3-3-|--------------------|-------|


G|-----------|----------------|-------|-----------|---------------------------|
D|-----------|----------------|-------|-----------|--s--------------2-3-4-5---|
A|-----------|-5-3--3---1-3-3-|-3-2-3-|-----------|-2\3-5-3--3--1-3---------3-|
E|-3---1-3-3-|----------------|-------|-3---1-3-3-|---------------------------|


--------------------
01:24
GUITAR SOLO 1
**************
G|-----------|----------------|-------|-----------|------------------------|
D|-----------|----------------|-3-4-5-|-----------|--s-------------2-3-4-5-|
A|-----------|-5-3--3---1-3-3-|-------|-----------|-2\3-5-3--1-3-3---------|
E|-3---1-3-3-|----------------|-------|-3---1-3-3-|------------------------|


G|-2--2--2--2-|-2-2-2-2-|-2-2-2-2-|-2222-|-2222-|-2222-|-2222---|
D|------------|---------|---------|------|------|------|------0-|
A|------------|---------|---------|------|------|------|--------|
E|------------|---------|---------|------|------|------|--------|


--------------------
01:54
BREAK
******
G|----------|----------|-----------|-----------------------------14----|
D|----------|----------|-7-8---8---|----------12--12----12-12-12----12-|
A|-3----3-3-|-2--------|-----8---8-|-6---6--s--------12----------------|
E|----3-----|---5--5-5-|-----------|---6---6\--------------------------|


G|--------------|----12--------|-------------------|-----8--s-|
D|-10--10----10-|-10----10-9-7-|---7-7---7-8-----8-|---8---8\-|
A|--------10----|--------------|-7-----------8-----|-6--------|
E|--------------|--------------|---------------6---|----------|


--------------------
02:20
GUITAR SOLO 2
**************
G|--------------|-------------|--------------|---------|---------|
D|--------------|-------------|--------------|-8-------|---------|
A|-5-----5-5--5-|-3----3-3----|--------------|---8---8-|-6---6---|
E|-----5--------|----3------6-|-5---5-5--5--5|-----6---|---6---6-|


G|-------------------|--------------|--------------|---------|---------|
D|---------------7---|--------------|--------------|---------|---------|
A|-5--5---5-5--5---5-|-3--3---3-3---|--------------|---------|-6-6-6-6-|
E|------5------------|------3-----6-|-5---5-5-5--5-|-6-6-6-6-|---------|

02:50
G|-------------------|-----------------|---------------|---------|-----8---|
D|---------------7---|-----------------|---------------|-8-----8-|---8---8-|
A|-5--5---5-5--5---5-|-3--3-----3--3---|---------------|---8-----|-6-------|
E|------5------------|------3-5------6-|-5--5-5-5--5-5-|-----6---|---------|


G|--------------------|-------------------------------------|---------|---------|
D|--------------------|-------------------------------------|---------|---------|
A|-5--5--5-5-5--5-5-5-|-3--3--3-3--3-2-1-0------------------|---------|-6-6-6-6-|
E|--------------------|--------------------5--5-5--5--5-5-5-|-6-6-6-6-|---------|

03:20
G|-----------------------------|--------------------------|------------------------|---------|---------|
D|------------------------7--s-|--------------------------|------------------------|---------|---------|
A|-5--5-5-5--5-5-5--5-5-5---5\-|-3--3-3-3--3-3-3--3-2-1-0-|------------------------|---------|-6-6-6-6-|
E|-----------------------------|--------------------------|-5-5-5--5-5-5--5-5-5--5-|-6-6-6-6-|---------|


G|-----------------------------|--------------------------|------------------------|---------|---------|
D|------------------------7--s-|--------------------------|------------------------|---------|---------|
A|-5--5-5-5--5-5-5--5-5-5---5\-|-3--3-3-3--3-3-3--3-2-1-0-|------------------------|---------|-6-6-6-6-|
E|-----------------------------|--------------------------|-5-5-5--5-5-5--5-5-5--5-|-6-6-6-6-|---------|

03:49
G|--------------------------|
D|--s-------s------s--------|
A|-5\----5-5\----5-5\-----5-|
E|--------------------------|


04:07
INTRO SECTION
**************
G|----------|----------|-----------|-----------------------------14----|
D|----------|----------|-7-8---8---|----------12--12----12-12-12----12-|
A|-3----3-3-|-2--------|-----8---8-|-6---6--s--------12----------------|
E|----3-----|---5--5-5-|-----------|---6---6\--------------------------|


--------------------
04:21
VERSE 1
********
  Have you seen the mystic queen..................
G|---------|----------------|-----------|---------------------|
D|-----s---|--s-7---7-------|-----------|--s-7-----7-7--7---7-|
A|-5--5\-1-|-1\-------5-3-1-|-1-----1-1-|-1\-----7--------7---|
E|---------|----------------|-----1-----|---------------------|

04:36
G|---------|----------------|-----------|-----------------|
D|-----s---|--s-7---7-------|-----------|--s-7--7-7-7-7---|
A|-5--5\-1-|-1\-------5-3-1-|-1-----1-1-|-1\------------5-|
E|---------|----------------|-----1-----|-----------------|


--------------------
VOL SOLO
*********
05:10                                                             USE VOL
G|-------|-------|-------|-------|-------|-------|-------|-------|-10--7-------|
D|-------|-------|-------|-------|-------|-------|-------|-------|--------7----|
A|-5-5-5-|-5-5-5-|-5-5-5-|-5-5-5-|-3-3-3-|-3-3-3-|-4-4-4-|-4-4-4-|-----------5-|
E|-------|-------|-------|-------|-------|-------|-------|-------|-------------|            
Submit corrections

↑ Back to top | Tablatures and chords for acoustic guitar and electric guitar, ukulele, drums are parodies/interpretations of the original songs. You may use it for private study, scholarship, research or language learning purposes only