Home » C » Cambio »

Cambio - Dv Tabs

Artists:  A B C D E F G H I J K L M N O P Q R S T U V W X Y Z # 

Dv Tabs
Version #1
Cambio


Copy URL
there are only 2 riffs. one for the verse and chorus and one for the ending.

RIFF 1

E|---------------------------------------|
B|---------------------------------------|
G|-9-9-------------7-7-------------------|
D|-9-9----8-9-9----7-7----6-7-7-7--------|
A|-7-7----8-9-9----5-5----6-7-7-7--------|
E|--------6-7-7-----------4-5-5-5--------|

RIFF 2

E|---------------------------------------|
B|---------------------------------------|
G|---------7-----4-----------------------|
D|-7-------7-x4--4-x4--------------------|
A|-7-x8----5-----2-----------------------|
E|-5-------------------------------------|

the part before the ending is done with some effect i don't know how to make. find out for yourself.
            
Submit corrections

↑ Back to top | Tablatures and chords for acoustic guitar and electric guitar, ukulele, drums are parodies/interpretations of the original songs. You may use it for private study, scholarship, research or language learning purposes only