» » »

Calvin Harris - Well Be Coming Back Bass

Artists:  A B C D E F G H I J K L M N O P Q R S T U V W X Y Z # 

Well Be Coming Back Bass

(ver. 1) Click to play this song!
Calvin Harris
 Rating:
4/5 (4 votes)


 Well Be Coming Back lessons Tabs too difficult? Try these video lessons and learn fast
 
                Track: We'll Be Coming Back
Tuning: Standard

The timing is a little strange throughout the song, it takes a bit of getting used to.
This is my first tab and I'm no professional, but it sounds about right to me!
Have fun playing this awesome song! (just try not to dance whilst playing)

G|-----------------------------------|-------------------------------------|
D|-----------------------------------|--------------------------------7-5r-|
A|----3--2-3--2-3-5--7--6-7--6-7-9---|----3--2-3--2-3-5--7--6-7--6-7-9-----|
E|-----------------------------------|-------------------------------------|  

G|---------------------------------|
D|---7-5r-7-5-----------------5r---|
A|-9----------5-3--2-3--2-3-5------|
E|---------------------------------| 

G|----------------------------------------------------|
D|--------6------8-----------10-----11h9--------------|
A|---3-5-7--5-7-9-10---7-9-11----7-9----h11h9---------|
E|----------------------------------------------------| x2

G|-------------------------------------------------------------------------|
D|--------6------8-----------10-----11h9------14(repeat with tempo)-14s3---|
A|---3-5-7--5-7-9-10---7-9-11----7-9----h11h9------------------------------|
E|-------------------------------------------------------------------------|

*Bass Drop!*

G|----------------------------------------------------|
D|--------6------8-----------10-----11h9--------------|
A|---3-5-7--5-7-9-10---7-9-11----7-9----h11h9---------|
E|----------------------------------------------------| x4

G|-----------------------------------|-------------------------------------|
D|-----------------------------------|--------------------------------7-5r-|
A|----3--2-3--2-3-5--7--6-7--6-7-9---|----3--2-3--2-3-5--7--6-7--6-7-9-----|
E|-----------------------------------|-------------------------------------|  

G|---------------------------------------------------|
D|---7-5r------------------5r--5(repeat with tempo)--|
A|-9-------5-3--2-3--2-3-5---------------------------|
E|---------------------------------------------------| 

G|----------------------------------------------------|
D|--------6------8-----------10-----11h9--------------|
A|---3-5-7 -5-7-9-10---7-9-11----7-9----h11h9---------|
E|----------------------------------------------------| x4

Bridge Bass comes in at 2:45

G|------------------------------------|
D|------------------------------------|
A|-3-3-3-3--5-5-5-5--7-7-7-7--5-5-5-5-|
E|------------------------------------| x2

G|----------------------|
D|-3(repeat with tempo)-|
A|----------------------|
E|----------------------|

*Bass Drop!*

G|----------------------------------------------------|
D|--------6------8-----------10-----11h9--------------|
A|---3-5-7--5-7-9-10---7-9-11----7-9----h11h9---------|
E|----------------------------------------------------| x4 

Bam - and you're done!
If you think that this tab can be improved please tell me in the comments - I am 
open to suggestions!
            
Submit corrections



        Well Be Coming Back lessons Hard to play? Try these video lessons and learn fast Well Be Coming Back lessons
        
↑ Back to top | Tablatures and chords for acoustic guitar and electric guitar, ukulele, drums are parodies/interpretations of the original songs. You may use it for private study, scholarship, research or language learning purposes only