Home » C » Calvin Harris »

Calvin Harris - Summer Tabs

Artists:  A B C D E F G H I J K L M N O P Q R S T U V W X Y Z # 

Summer Tabs

(ver. 1) Click to play this song!
Calvin Harris
verse bit

--------------------------------------------------------------|
------5-5-8-8-7-7-7-7-----------------------------------------|
-----------------------5-5-4-4-0-0-0-0------------------------|
--------------------------------------------------------------|
--------------------------------------------------------------|
--------------------------------------------------------------|

piano bit

e---------------------7----8-8-8-7-8-10------------------------|
b------8-10-8-7---7-8---8--------------------------------------|
g---------------7----------------------------------------------|
d--------------------------------------------------------------|
a--------------------------------------------------------------|
e--------------------------------------------------------------|

---7-8-7------------------------------------------------------|
---------8-------8-8-8-7-8-7-8-10-----------------------------|
-----------9-7-9----------------------------------------------|
--------------------------------------------------------------|
--------------------------------------------------------------|
--------------------------------------------------------------|

synth bit
--------------------------------------------------------------|
------8-8/10-10/12-12-8-8/7-7/5-5/3-3/8-----------------------|
--------------------------------------------------------------|
--------------------------------------------------------------|
--------------------------------------------------------------|
--------------------------------------------------------------|


--------------------------------------------------------------|
------8-8/10-10/12-12-8-8/7-7/5-5/3-3-------------------------|
--------------------------------------2-----------------------|
--------------------------------------------------------------|
--------------------------------------------------------------|
--------------------------------------------------------------|            
Submit corrections

↑ Back to top | Tablatures and chords for acoustic guitar and electric guitar, ukulele, drums are parodies/interpretations of the original songs. You may use it for private study, scholarship, research or language learning purposes only