Home » C » Calvin Harris »

Calvin Harris - Slide Tabs

Artists:  A B C D E F G H I J K L M N O P Q R S T U V W X Y Z # 

Slide Tabs

(ver. 1) Click to play this song!
Calvin Harris
Intro

e|--4----4---------4-----4----7---------------------|
B|--5-------7-7----5--------7-----------------------|
G|--6--6-----------6--6-----------------------------|
D|--7--7-----------7--7-----------------------------|
A|--0--------------0--------------------------------|
E|--5--------------5--------------------------------|

Changes slightly after the first time to

e|--4----4---------4-----4----7-9-------------------|
B|--5-------7-4----5--------7-----------------------|
G|--6--6-----------6--6-----------------------------|
D|--7--7-----------7--7-----------------------------|
A|--0--------------0--------------------------------|
E|--5--------------5--------------------------------|


The rest of the chords for the song go as follows

e|--4----4----x-----------|
B|--5----4----5-----------|
G|--6----4----6-----------|
D|--7----6----7-----------|
A|--0----6----7-----------|
E|--5----4----5-----------|            
Submit corrections

↑ Back to top | Tablatures and chords for acoustic guitar and electric guitar, ukulele, drums are parodies/interpretations of the original songs. You may use it for private study, scholarship, research or language learning purposes only