» » »

Calvin Harris - Merry Making At My Place Bass

Artists:  A B C D E F G H I J K L M N O P Q R S T U V W X Y Z # 

Merry Making At My Place Bass

(ver. 1) Click to play this song!
Calvin Harris
 Rating:
4.5/5 (8 votes)
                
Intro
G|-----------------|
D|-----------------|
A|-0-2---2-2-2-0-2-|
E|-----------------|
Repeated about 4 times.


Verse
G|------------------------------------------------------------------------------------|
D|--------------------0-2---2-2-2-0-2---------------------------0-0-----0-2-4--2-0----|
A|-0-2---2-2-2-0-2----------------------------------------2--4-------0-------------4--|
E|--------------------------------------5-5---5-5-5-5-5-------------------------------|
Repeated almost through out.

Pretty easy really!
            
Submit corrections

↑ Back to top | Tablatures and chords for acoustic guitar and electric guitar, ukulele, drums are parodies/interpretations of the original songs. You may use it for private study, scholarship, research or language learning purposes only