Home » C » Calvin Harris »

Calvin Harris - Feels Tabs

Artists:  A B C D E F G H I J K L M N O P Q R S T U V W X Y Z # 

Feels Tabs

(ver. 1) Click to play this song!
Calvin Harris
[Intro]
e|---------------------------------------------------------------------------|
B|---------------------------------------------------------------------------|
G|---------------------------------------------------------------------------|
D|---------------------------------------------------------------------------|
A|---------------------------------------------------------------------------|
E|-0PM-----------------------------------------------------------------------|

[Verse 1 and chorus]
e|--------------------------------------------------------------------------------------|
B|-12--12----14--14----10--10----15--15-15---12--12----14--14----10--10----15151515-15--|
G|-12--12----14--14----11--11----16--16-16---12--12----14--14----11--11----16161616-16--|
D|--------------------------------------------------------------------------------------|
A|--------------------------------------------------------------------------------------|
E|--------------------------------------------------------------------------------------|

[Verse 2]
It pretty much follows the bass line during this verse. Palmmute
e|---------------------------------------------------------------------------|
B|---------------------------------------------------------------------------|
G|---------------------------------------------------------------------------|
D|---------------------------------------------------------------------------|
A|---------9-10-12------9--9----12-13-14-------------------------------------|
E|-12--12--------------------------------------------------------------------|

[Bridge]
e|---------------|
B|-3--3----------|
G|---------------|
D|---------------|
A|---------------|
E|---------------|

e|-7--7----101010101010----7--7----1010101010\9--|
B|-7--7----7-7-7-7-7-7-----7--7----7-7-7-7-7--7--|
G|-7--7----7-7-7-7-7-7-----7--7----7-7-7-7-7--7--|
D|-----------------------------------------------|
A|-----------------------------------------------|
E|-----------------------------------------------|            
Submit corrections

↑ Back to top | Tablatures and chords for acoustic guitar and electric guitar, ukulele, drums are parodies/interpretations of the original songs. You may use it for private study, scholarship, research or language learning purposes only