» » »

Callalily - Dito Ka Lang Tabs

Artists:  A B C D E F G H I J K L M N O P Q R S T U V W X Y Z # 

Dito Ka Lang Tabs

(ver. 1) Click to play this song!
Callalily
 Rating:
4.2/5 (5 votes)
                
For any comments and Suggestion:


        This is the new song of Callalily from their new album      
                              "Fisheye"..
                Kung may mali man,..pakicomment kaagad..tnx!

Intro (2x)

Guitar 1:
e----------------------------------------------|
b---88888--7777-8/-12121212-101010-7777-888----|
g----------------------------------------------|
D----------------------------------------------|
E----------------------------------------------|

e----------------------------------|
b--777-18/121212-10100-7777-888888-|
g----------------------------------|
D----------------------------------|
A----------------------------------|
E----------------------------------|

Verse: (paki-tama naman po)

Kailan tagal na naghihintay
e-----3------3-------3--------3------3---------------|
b-------1111----1111----1111----111-----111----------|
g----------------------------------------------------|
D----------------------------------------------------|
A----------------------------------------------------|
E----------------------------------------------------|

Kailan tagal na nan*langin
e-----3------3-------3--------3------3---------------|
b-------1111----1111----1111----111-----111----------|
g----------------------------------------------------|
D----------------------------------------------------|
A----------------------------------------------------|
E----------------------------------------------------|

Refrain:

Ngayo’y nandito ka na…
e----------------------|
b----------------------|
g------5------5--------|
D---7--5---7--5--555---|
A---7--3---7--3--555---|
E---5------5-----333---|

Wala nang..makakapigil…
e----------------------|
b----------------------|
g------5------5--------|
D---7--5---7--5--555---|
A---7--3---7--3--555---|
E---5------5-----333---|

Dalawa….
e-----------|
b-----------|
g---77777---|
D---77777---|
A---55555---|
E-----------|

Chorus:

Huwag ka nang lalayo….
e-------------------------------|
b-------------------------------|
g--999999----777777----555555---|
D--999999----777777----555555---|
A--777777----555555----333333---|
E-------------------------------|

Huwag ka nang lilingon….
e-------------------------------|
b-------------------------------|
g--999999----777777----555555---|
D--999999----777777----555555---|
A--777777----555555----333333---|
E-------------------------------|

Verse 2:

 Kay tagal na nag-iisip…..
e-----3------3-------3--------3------3---------------|
b-------1111----1111----1111----111-----111----------|
g----------------------------------------------------|
D----------------------------------------------------|
A----------------------------------------------------|
E----------------------------------------------------|

Ikaw ngay totoo..
e-----3------3-------3--------3------3---------------|
b-------1111----1111----1111----111-----111----------|
g----------------------------------------------------|
D----------------------------------------------------|
A----------------------------------------------------|
E----------------------------------------------------|

Refrain:

Ngayon nandito ka na..
e----------------------|
b----------------------|
g------5------5--------|
D---7--5---7--5--555---|
A---7--3---7--3--555---|
E---5------5-----333---|

Wala nang..makakapigil…
e----------------------|
b----------------------|
g------5------5--------|
D---7--5---7--5--555---|
A---7--3---7--3--555---|
E---5------5-----333---|

Dalawa….
e-----------|
b-----------|
g---77777---|
D---77777---|
A---55555---|
E-----------|

Chorus:

Huwag ka nang lalayo….
e-------------------------------|
b-------------------------------|
g--999999----777777----555555---|
D--999999----777777----555555---|
A--777777----555555----333333---|
E-------------------------------|

Adlib: Em-D-C (2x)

Huwag ka nang lilingon dito ka lang..
Sakin tabi,,….

Huwag ka nang lilingon….
e-------------------------------|
b-------------------------------|
g--999999----777777----555555---|
D--999999----777777----555555---|
A--777777----555555----333333---|
E-------------------------------|
E-------------------------------|

Huwag ka nang lalayo….
e-------------------------------|
b-------------------------------|
g--999999----777777----555555---|
D--999999----777777----555555---|
A--777777----555555----333333---|
E-------------------------------|
E-------------------------------|

Lyrics:

Kay tagal naghihintay
Makita  lamang ang iyonh ngiti
Kay tagal nanan*langin,nagdarasal 
Na mahawakan muli ang yong mga pisngi
Ngayong nandito ka na, wala nang makakapigil
Sating dalawa.

Wag ka nang lalayo..
Dito ka lang sa’king tabi
Wag ka nang lilingon
Dito ka lang sa king tabi
Wag ka nang lilingon
Dito ka lang sa’king tabi

Kay tagal mag-isip
Ikaw pa rin ba yung babae sa ‘king panaginip?
Ikaw ba ay totoo?ikaw ba ay totoo?.


Lyrics:

Kay tagal naghihintay
Makita  lamang ang iyonh ngiti
Kay tagal nanan*langin,nagdarasal 
Na mahawakan muli ang yong mga pisngi
Ngayong nandito ka na, wala nang makakapigil
Sating dalawa.

Wag ka nang lalayo..
Dito ka lang sa’king tabi
Wag ka nang lilingon
Dito ka lang sa king tabi
Wag ka nang lilingon
Dito ka lang sa’king tabi

Kay tagal mag-isip
Ikaw pa rin ba yung babae sa ‘king panaginip?
Ikaw ba ay totoo?ikaw ba ay totoo?.
            
Submit corrections

↑ Back to top | Tablatures and chords for acoustic guitar and electric guitar, ukulele, drums are parodies/interpretations of the original songs. You may use it for private study, scholarship, research or language learning purposes only