Home » C » California Breed »

California Breed - Invisible Tabs

Artists:  A B C D E F G H I J K L M N O P Q R S T U V W X Y Z # 

Invisible Tabs

(ver. 1) Click to play this song!
California Breed
Tuning: EbAbDbGbBbEb

Main Riff
0:15
e|----------------------------|----------------------------------------------|
B|----------------------------|----------------------------------------------|
G|----------------------------|----------------------------------------------|
D|----------------------------|-8--------------------------------------------|
A|---------------4b4.5~-4~-3~-|-8--------------------------------------------|
E|-0-2b3r2b3r2-0--------------|-6--------------------------------------------|

Verse
0:46
  2 times           Then
e|-----------------|---------------------------------------------------------|
B|-----------------|---------------------------------------------------------|
G|--6-7-9~--7-9-10~|-----------------------------5h7-7-7-7-5---5h7-7-7-7-5---|
D|-----------------|-5h7-7-7-7-5---5h7-7-7-7-5---8---8-8-8-8---8---8-8-8-8---|
A|-----------------|-0---0-0-0-0---0---0-0-0-0-------------------------------|
E|-----------------|---------------------------------------------------------|

Chorus
1:14         Repeat this part...                  End on
e|----------|------------------------------------|---------------------------|
B|----------|------------------------------------|---------------------------|
G|----------|------10b12r10~-----7b9r7~----------|---------------------------|
D|-3-5-7-10-|-8-8------------5-5--------7-9-10-5-|-7-------------------------|
A|-1-3-5-8--|-8-8------------5-5--------5-7-8--3-|-5-------------------------|
E|----------|-6-6------------3-3-----------------|---------------------------|

Interlude/Solo
3:10

Guitar 1
e|----------------------------------------------------------------------------------------------------------|
B|-----Hold Bend----------Hold Bend-------------------------------------Hold Bend-----------Hold Bend-------|
G|-10b12-12-12-12r10p8--10b12-12-12-12r10p8--9--9-9-9-7-9--9-9-9-7--10b12-12-12-12r10p8--10b12-12-12-12r10p8|
D|----------------------------------------------------------------------------------------------------------|
A|----------------------------------------------------------------------------------------------------------|
E|----------------------------------------------------------------------------------------------------------|

3:22                                           3:26
e|----------------------------------------------------------------------------------------------------------|
B|----------------------------------------------------------------------------------------------------------|
G|-14b15-15-15-15r14p12--14b15-15-15-15r14p12--16b18-18-18-18r16p14---16b18-18-18-18r16p14------------------|
D|----------------------------------------------------------------------------------------------------------|
A|----------------------------------------------------------------------------------------------------------|
E|----------------------------------------------------------------------------------------------------------|

3:29
e|--------------------------------------------------------18------------18------------18--------------------|
B|-15b17-17-17-17r15p13--15b17-17-17-17r15p13--18b20r18b20---18b20r18b20---18b20r18b20---18b20-18b20r18-16--|
G|----------------------------------------------------------------------------------------------------------|
D|----------------------------------------------------------------------------------------------------------|
A|----------------------------------------------------------------------------------------------------------|
E|----------------------------------------------------------------------------------------------------------|

e|-18b20~~--22b24~~--|
B|-------------------|
G|-------------------|
D|-------------------|
A|-------------------|
E|-------------------|

Guitar 2 Solo Rhythm
e|---------------------------------------------|
B|---------------------------------------------|
G|--8--5---------------------------------------|
D|--8--5---------------------------------------|
A|--6--3---------------------------------------|
E|---------------------------------------------|            
Submit corrections

↑ Back to top | Tablatures and chords for acoustic guitar and electric guitar, ukulele, drums are parodies/interpretations of the original songs. You may use it for private study, scholarship, research or language learning purposes only