» » »

Caliban - Beloved And The Hatred Tabs

Artists:  A B C D E F G H I J K L M N O P Q R S T U V W X Y Z # 

Beloved And The Hatred Tabs

(ver. 1) Click to play this song!
Caliban
 Rating:
3.1/5 (7 votes)


 Beloved And The Hatred lessons Tabs too difficult? Try these video lessons and learn fast
 
                Intro: 
     
    
D|------------------|     |-------------------------------------|
A|------------------|then.|-------------------------------------|
F|------------------|..   |-------------------3-----5-----7-5-\-|
C|--1000100010001-1-| x 4 |--0~----7-6-1--0-0-3-0-0-5--0~-------| x 2
G|--1000100010001-1-|     |--0~-----------0-0-1-0-0-3--0~-------|
C|--1000100010001-1-|     |--0~-----------0-0---0-0----0~-------|

Fill:

D|----------------------|
A|----------------------|
F|----------------------|       
C|--1p0-2p0-1h4p1-------|   
G|--1p0-2p0-1h4p1-------|       
C|--1p0-2p0-1h4p1-------|        


Verse:

D|-----------------------------------|        
A|-----------------------------------|       
F|-----------------------------------|        
C|--1-0-0-1-0-0-1p0-2p0-1h4p1-0------| x 7  then play..   
G|--1-0-0-1-0-0-1p0-2p0-1h4p1-0------|       
C|--1-0-0-1-0-0-1p0-2p0-1h4p1-0------|        
      . .   . .

D|-------------------------|
A|-------------------------|
F|-------------------------|
C|-0000-000000-0000-000000-| x 2
G|-0000-000000-0000-000000-|
C|-0000-000000-0000-000000-|
   .... ...... .... ......

chorus:
 Guitar I
D|----------------------------------------------------|
A|----------------------------------------------------|
F|-----13------13-------13-------13---------13-14-13--| x 4
C|---11--11--11--11--11---11---11---11---11-----------| 
G|-12-----12------12--------12---------12-------------|
C|----------------------------------------------------|


Guitar II

D|---------------------------------------|
A|---------------------------------------|
F|---------------------------------------|
C|-0-2-4-2~---0-4-2~---0-4-2-7~----0-4-2~| x 2
G|-0-2-4-2~---0-4-2~---0-4-2-7~----0-4-2~|
C|-0-2-4-2~---0-4-2~---0-4-2-7~----0-4-2~|

Verse:

D|----------------------------------|
A|----------------------------------|
F|--7--6/7---7/8-5/7--7--6/7--7/5/3-| x 4
C|--7--6/7---7/8-5/7--7--6/7--7/5/3-|
G|--5--4/5---5/6-3/5--5--4/5--5/3/1-|
C|---00-----------------------------|
     ..

D|-----------------------------------|        
A|-----------------------------------|       
F|-----------------------------------|        
C|--1-0-0-1-0-0-1p0-2p0-1h4p1-0------| x 4    
G|--1-0-0-1-0-0-1p0-2p0-1h4p1-0------|       
C|--1-0-0-1-0-0-1p0-2p0-1h4p1-0------|        
      . .   . .


Chorus:

Guitar I
D|----------------------------------------------------|
A|----------------------------------------------------|
F|-----13------13-------13-------13---------13-14-13--| x 4
C|---11--11--11--11--11---11---11---11---11-----------| 
G|-12-----12------12--------12---------12-------------|
C|----------------------------------------------------|


 
Guitar II

D|---------------------------------------|
A|---------------------------------------|
F|---------------------------------------|
C|-0-2-4-2~---0-4-2~---0-4-2-7~----0-4-2~| x 5
G|-0-2-4-2~---0-4-2~---0-4-2-7~----0-4-2~|
C|-0-2-4-2~---0-4-2~---0-4-2-7~----0-4-2~|


Verse:

D|----------------------------------|
A|----------------------------------|
F|--7--6/7---7/8-5/7--7--6/7--7/5/3-| x 4
C|--7--6/7---7/8-5/7--7--6/7--7/5/3-|
G|--5--4/5---5/6-3/5--5--4/5--5/3/1-|
C|---00-----------------------------|
     ..

Fill:

D|----------------------|
A|----------------------|
F|----------------------|       
C|--1p0-2p0-1h4p1-------|   
G|--1p0-2p0-1h4p1-------|       
C|--1p0-2p0-1h4p1-------|        

Outro:

Guitar I

D|-------------------------|
A|-------------------------|
F|-------------------------|
C|-0000-000000-0000-000000-| x 6
G|-0000-000000-0000-000000-|
C|-0000-000000-0000-000000-|
   .... ...... .... ......

Guitar II

D|--------------------------|
A|--------------------------|
F|---7-----7-------7------7-|
C|---7-----7-------7------7-|
G|---5-----5-------5------5-|
C|--------------------------|

Both Guitars End On :

D|------|
A|------|
F|------|
C|-00000|
G|-00000|
C|-00000|
   .....
            
Submit corrections



        Beloved And The Hatred lessons Hard to play? Try these video lessons and learn fast Beloved And The Hatred lessons
        
↑ Back to top | Tablatures and chords for acoustic guitar and electric guitar, ukulele, drums are parodies/interpretations of the original songs. You may use it for private study, scholarship, research or language learning purposes only