» » »

Calexico - Guero Canelo Tabs

Artists:  A B C D E F G H I J K L M N O P Q R S T U V W X Y Z # 

Guero Canelo Tabs

(ver. 1) Click to play this song!
Calexico
 Rating:
4.1/5 (31 vote)

 Guero Canelo  lessons Tabs too difficult? Try these video lessons and learn fast
 
                Bass :
G |---------------------------------------------------|------------------------------------------------|
D |---------------------------------------------------|------------------------------------------------|
A |---------------------------------------------------|------------------------------------------------|
E |--0----------3s-5-----7-------0g--------3s-5---7---|--8--------10-12----------7--------8--10--------|



Guitar :
                                                        
E |----------------------------------------------------|
B |----------------------------------------------------|
G |----------------------------------------------------|
D |----------------------------------------------------|
A |-----------------2--5-----5--5--5-----3--2-----0----|
E |--0--0-----0--4-------------------------------------|

                                                     
----------------------------------------------------|
----------------------------------------------------|
----------------------------------------------------|
--------------0--2--2--2--2--2-----0----------------|
--0-----3--------------------------------3--2-------|
----------------------------------------------------|

                                                     
----------------------------------------------------|
----------------------------------------------------|
----------------------------------------------------|
-----------------------0-----0--0--0----------------|
-----------------2--------------------3--2--0L------|
--0--0-----0--4-------------------------------------|

                             
----------------------------|
----------------------------|
----------------------------|
--2-------------------------|
--0-------------------------|
--------------0--2--4--5----|

                                                     
----------------------------------------------------|
----------------------------------------------------|
----------------------------------------------------|
----------------------------------------------------|
--------------2--5-----5--5--5-----3--2--------0----|
--0--0--0--4----------------------------------------|

                                                     
----------------------------------------------------|
----------------------------------------------------|
----------------------------------------------------|
--------------0--2--2--2--2--2-----0----------------|
--0-----3--------------------------------3--2-------|
----------------------------------------------------|

                                            ^
----------------------------------------------------|-------|
----------------------------------------------------|-------|
--------------------------------------------2L------|--2----|
-----------------------0-----0--0--0--------2L------|--2----|
-----------------2--------------------3--2--0L------|--0----|
--0--0-----0--4-------------------------------------|-------|  Repeat ....







            
Submit corrections


        Guero Canelo  lessons Hard to play? Try these video lessons and learn fast Guero Canelo  lessons
        
↑ Back to top | Tablatures and chords for acoustic guitar and electric guitar, ukulele, drums are parodies/interpretations of the original songs. You may use it for private study, scholarship, research or language learning purposes only