» » »

Calexico - Attack El Robot Attack Tabs

Artists:  A B C D E F G H I J K L M N O P Q R S T U V W X Y Z # 

Attack El Robot Attack Tabs

(ver. 1) Click to play this song!
Calexico
 Rating:
4.3/5 (9 votes)

 Attack El Robot Attack  lessons Tabs too difficult? Try these video lessons and learn fast
 
                Part A
E |----------------------------|----------------------------|
B |----------------------------|----------------------------|
G |--4.-4--7.-7--4.-4L----4----|--2.-2--5.-5--2.-2L----2----|
D |----------------------------|----------------------------|
A |----------------------------|----------------------------|
E |----------------------------|----------------------------|


----------------------------|----------------------------|
----------------------------|----------------------------|
--4.-4--7.-7--4.-4L----4----|--2.-2--4.-4--2.-2L----2----|
----------------------------|----------------------------|
----------------------------|----------------------------|
----------------------------|----------------------------|


----------------------------|----------------------------||
----------------------------|----------------------------||
--4.-4--7.-7--4.-4L----4----|--2.-2--5.-5--2.-2L----2----||
----------------------------|----------------------------||
----------------------------|----------------------------||
----------------------------|----------------------------||



E |----------|-------||
B |----------|-------||
G |--2--1----|-------||
D |--1--0----|--4----||
A |----------|--3----||
E |----------|-------|| x3


E |----------------------------|----------------------------|
B |----------------------------|----------------------------|
G |--4--4--7--7--4--4--4-------|--1--1--4--4--2--2--2-------|
D |----------------------------|----------------------------|
A |----------------------------|----------------------------|
E |----------------------------|----------------------------|


----------------------------|----------------------------|
----------------------------|----------------------------|
--4--4--7--7--4--4--4-------|--2--2--5--5--2--2--2-------|
----------------------------|----------------------------|
----------------------------|----------------------------|
----------------------------|----------------------------|


----------------------------|----------------------------|
----------------------------|----------------------------|
--4--4--7--7--4--4--4-------|--1--1--4--4--2--2--2-------|
----------------------------|----------------------------|
----------------------------|----------------------------|
----------------------------|----------------------------|


----------------------------|-------||
----------------------------|-------||
--4--4--7--7--4--4--4-------|--2----||
----------------------------|-------||
----------------------------|-------||

Trumpet : 
                                                                     <
E |----------------------------------------------------|----------|-------|----||
B |--12-10-12L---12L-----------------------------------|--12------|--10---|----||
G |----------------------------------------------------|----------|-------|----||
D |----------------------------------------------------|----------|-------|----||
A |----------------------------------------------------|----------|-------|----||
E |----------------------------------------------------|----------|-------|----||


Outro : 

E |----------|-------|----------|-------||
B |----------|-------|----------|-------||
G |--2--1----|-------|--2--1----|-------||
D |----------|--4----|----------|--4----||
A |----------|-------|----------|-------||
E |----------|-------|----------|-------||



            
Submit corrections


        Attack El Robot Attack  lessons Hard to play? Try these video lessons and learn fast Attack El Robot Attack  lessons
        
↑ Back to top | Tablatures and chords for acoustic guitar and electric guitar, ukulele, drums are parodies/interpretations of the original songs. You may use it for private study, scholarship, research or language learning purposes only