» » »

Caitlin Crosby - Finding Feelings Tabs

Artists:  A B C D E F G H I J K L M N O P Q R S T U V W X Y Z # 

Finding Feelings Tabs

(ver. 1) Click to play this song!
Caitlin Crosby
 Rating:
4/5 (4 votes)

 Finding Feelings lessons Tabs too difficult? Try these video lessons and learn fast
 
                I haven't posted a song that includes tabs yet, so I hope I did it right and that 
it makes sense!  A few notes:  In the chorus, I phonetically (sort of) wrote out 
how the words sound in each measure to help with the picking.  Down at the bridge, 
it's more of the live way (the recorded has more piano there but I think it may 
have been picked).  


Capo 3 (recorded version) or Capo 2 (most live versions)
p=pull off


Song intro & repeating picking pattern throughout song:

     G         G         G         G         c         C         Am7    
E|-----------|---------|---------|---------|---------|---------|---------|
B|-----------|---------|---------|---------|---------|---------|---------|
G|-----0-0---|---0-0---|---0-0---|---0-0---|---0-0---|---0-0---|---0-0---|
D|----0-0-0-0|--0-0-0-0|--0-0-0-0|--0-0-0-0|--2-2-2-2|--2-2-2-2|--2-2-2-2|
A|-----------|---------|-2-----2-|-2-----2-|-3-----3-|-3-----3-|-0-----0-|
E|---3-----3-|-3-----3-|---------|---------|---------|---------|---------|
  
   Am7          G (start of Verse 1)
E|-----------|---------|---------|---------|---------|---------|---------|
B|----1p0----|---------|---------|---------|---------|---------|---------|
G|---0-------|---0-0---|---------|---------|---------|---------|---------|
D|--2----2-2-|--0-0-0-0|---------|---------|---------|---------|---------|
A|-0------0--|---------|---------|---------|---------|---------|---------|
E|-----------|-3-----3-|---------|---------|---------|---------|---------|

     
VERSE 1

G
 Do you recall the way I

G
 I used to practice what I

C                             Am7   Am7
 Believe, but now I'm fallin'  down


VERSE 2

G
 It crept up on me while I

G
 Was sleepin' softly surprised

C                      Am7   Am7
 Gravity took ahold of  me


PRE-CHORUS

G
 I know it's time to wake up

G
 Cuz it hurts too much to make up

C                             Am7   Am7
 The colors that just make me  real


CHORUS:

    G               C
I'm finally finding feelings
    "Fine"    "ly"      "Fine"    "ding"    "Fee"     "lings"
  E|---------|---------|---------|---------|---------|---------|
  B|---------|---------|---------|---------|---------|---------|
  G|---0-----|---0-----|---0-----|---0-----|---0-0---|---0-0---|
  D|--0-0----|--0-0----|--0-0----|--0-0----|--2-2-2-2|--2-2-2-2|
  A|---------|---------|---------|-2-------|-3-----3-|-3-----3-|
  E|-3-------|-2-------|-0-------|---------|---------|---------|

G              C 
That remind me of me
    "That"    "Re"      "Mind"    "Me"      "Of"      "Me"
  E|---------|---------|---------|---------|---------|---------|
  B|---------|---------|---------|---------|---------|---------|
  G|---0-----|---0-----|---0-----|---0-----|---0-0---|---0-0---|
  D|--0-0----|--0-0----|--0-0----|--0-0----|--2-2-2-2|--2-2-2-2|
  A|---------|---------|---------|-2-------|-3-----3-|-3-----3-|
  E|-3-------|-2-------|-0-------|---------|---------|---------|

G               C
Finally finding feelings
    "Fine"    "ly"      "Fine"    "ding"    "Fee"     "lings"
  E|---------|---------|---------|---------|---------|---------|
  B|---------|---------|---------|---------|---------|---------|
  G|---0-----|---0-----|---0-----|---0-----|---0-0---|---0-0---|
  D|--0-0----|--0-0----|--0-0----|--0-0----|--2-2-2-2|--2-2-2-2|
  A|---------|---------|---------|-2-------|-3-----3-|-3-----3-|
  E|-3-------|-2-------|-0-------|---------|---------|---------|

       C (strum)      Cm (strum)     G (picking) 
That remind me of the girl I used to be


VERSE 3 

G
 Oh, I did not like the way you
G
 Pushed yourself on me like a 
C                             Am7   Am7
 Hurricane that came crashing down


VERSE 4

G
 Though I did not try to stop

G
 The many changes I clocked

C                        Am7  Am7
 I did not have ahold of  me


PRE-CHORUS

G
Oh, I know it's time to wake up

G
 Cuz it hurts too much to make up

C                             Am7   Am7
 The colors that just make me  real


CHORUS:

    G               C
I'm finally finding feelings
    "Fine"    "ly"      "Fine"    "ding"    "Fee"     "lings"
  E|---------|---------|---------|---------|---------|---------|
  B|---------|---------|---------|---------|---------|---------|
  G|---0-----|---0-----|---0-----|---0-----|---0-0---|---0-0---|
  D|--0-0----|--0-0----|--0-0----|--0-0----|--2-2-2-2|--2-2-2-2|
  A|---------|---------|---------|-2-------|-3-----3-|-3-----3-|
  E|-3-------|-2-------|-0-------|---------|---------|---------|

G              C 
That remind me of me
    "That"    "Re"      "Mind"    "Me"      "Of"      "Me"
  E|---------|---------|---------|---------|---------|---------|
  B|---------|---------|---------|---------|---------|---------|
  G|---0-----|---0-----|---0-----|---0-----|---0-0---|---0-0---|
  D|--0-0----|--0-0----|--0-0----|--0-0----|--2-2-2-2|--2-2-2-2|
  A|---------|---------|---------|-2-------|-3-----3-|-3-----3-|
  E|-3-------|-2-------|-0-------|---------|---------|---------|

G               C
Finally finding feelings
    "Fine"    "ly"      "Fine"    "ding"    "Fee"     "lings"
  E|---------|---------|---------|---------|---------|---------|
  B|---------|---------|---------|---------|---------|---------|
  G|---0-----|---0-----|---0-----|---0-----|---0-0---|---0-0---|
  D|--0-0----|--0-0----|--0-0----|--0-0----|--2-2-2-2|--2-2-2-2|
  A|---------|---------|---------|-2-------|-3-----3-|-3-----3-|
  E|-3-------|-2-------|-0-------|---------|---------|---------|

       C (strum)      Cm (strum)     G (picking) 
That remind me of the girl I used to be
  "Be"    
E|---------|---------|
B|---------|---------|
G|---0-0---|---0-----|
D|--0-0-0-0|--0-0----|
A|---------|---------|
E|-3-----3-|-3---2---|


BRIDGE (recording=pick?, live=strum)

D                         c
I know there'll never be another 

         D
One like me

                        C
I won't be playin' undercover 

          D
Cuz now I see

                        C 
My braces will come off  tomorrow

(stop strumming)        D (one downstroke)
                I'll be smilin'

            C
Cuz I'll be me-e-e-e
    "Me"      "-E"       "-E"       "-E"
  E|---------|---------|---------|---------|
  B|---------|---------|---------|---------|
  G|---0-----|---0-----|---0-----|---0-----|
  D|--2-2----|--0-0----|--0-0----|--0-0----|
  A|-3-------|-2-------|-0-------|-0-------|
  E|---------|---------|---------|---------|

      "-E"                                               "Oh I'll be"
  E|---------|---------|---------|---------|---------|---------|
  B|---------|---------|---------|---------|---------|---------|
  G|---0-----|---0-----|---0-----|---0-----|---0-0---|---0-0---|
  D|--0-0----|--0-0----|--0-0----|--0-0----|--2-2-2-2|--2-2-2-2|
  A|---------|---------|---------|-2-------|-3-----3-|-3-----3-|
  E|-3-------|-2-------|-0-------|---------|---------|---------|
   
          C
 I'll be  me-e-e-e
    "Me"      "-E"       "-E"       "-E"                      "oh oh-oh-oh"
  E|---------|---------|---------|---------|---------|---------|
  B|---------|---------|---------|---------|---------|---------|
  G|---0-----|---0-----|---0-----|---0-----|---0-0---|---0-0---|
  D|--0-0----|--0-0----|--0-0----|--0-0----|--2-2-2-2|--2-2-2-2|
  A|---------|---------|---------|-2-------|-3-----3-|-3-----3-|
  E|-3-------|-2-------|-0-------|---------|---------|---------|




CHORUS:

G                C
 Finally finding feelings
    "Fine"    "ly"      "Fine"    "ding"    "Fee"     "lings"
  E|---------|---------|---------|---------|---------|---------|
  B|---------|---------|---------|---------|---------|---------|
  G|---0-----|---0-----|---0-----|---0-----|---0-0---|---0-0---|
  D|--0-0----|--0-0----|--0-0----|--0-0----|--2-2-2-2|--2-2-2-2|
  A|---------|---------|---------|-2-------|-3-----3-|-3-----3-|
  E|-3-------|-2-------|-0-------|---------|---------|---------|

G              C 
That remind me of me
    "That"    "Re"      "Mind"    "Me"      "Of"      "Me"
  E|---------|---------|---------|---------|---------|---------|
  B|---------|---------|---------|---------|---------|---------|
  G|---0-----|---0-----|---0-----|---0-----|---0-0---|---0-0---|
  D|--0-0----|--0-0----|--0-0----|--0-0----|--2-2-2-2|--2-2-2-2|
  A|---------|---------|---------|-2-------|-3-----3-|-3-----3-|
  E|-3-------|-2-------|-0-------|---------|---------|---------|

G               C
Finally finding feelings
    "Fine"    "ly"      "Fine"    "ding"    "Fee"     "lings"
  E|---------|---------|---------|---------|---------|---------|
  B|---------|---------|---------|---------|---------|---------|
  G|---0-----|---0-----|---0-----|---0-----|---0-0---|---0-0---|
  D|--0-0----|--0-0----|--0-0----|--0-0----|--2-2-2-2|--2-2-2-2|
  A|---------|---------|---------|-2-------|-3-----3-|-3-----3-|
  E|-3-------|-2-------|-0-------|---------|---------|---------|

       C (strum)      Cm (strum)     G (strum) 
That remind me of the girl I used to be
            
Submit corrections


        Finding Feelings lessons Hard to play? Try these video lessons and learn fast Finding Feelings lessons
        
↑ Back to top | Tablatures and chords for acoustic guitar and electric guitar, ukulele, drums are parodies/interpretations of the original songs. You may use it for private study, scholarship, research or language learning purposes only