» » »

Caifanes - La Negra Tomasa Tabs

Artists:  A B C D E F G H I J K L M N O P Q R S T U V W X Y Z # 

La Negra Tomasa Tabs

(ver. 1) Click to play this song!
Caifanes
 Rating:
3.7/5 (6 votes)

 La Negra Tomasa lessons Tabs too difficult? Try these video lessons and learn fast
 
                INTRO:

* SE REPITE MUCHAS VECES
e|--------------------------|
B|----6-----6------6-----6--|
G|-7-----7------9-----9-----|
D|--------------------------|
A|--------------------------|
E|--------------------------|


e|-------------------------------------------------------------------|
B|---6---6---6---6----6---6---6---6---6---6---6---6------------------|
G|-7---7---9---9----7---7---9---9---7---7---9---9-----6---6---6---6--|
D|--------------------------------------------------7---7---9---9----|
A|-------------------------------------------------------------------|
E|-------------------------------------------------------------------|
  ESTOY    TAN    ENAMORADO    DE    LA    NEGRA   TOMASA
e|------------------------------------------------------------------|
B|---------------------------------------------------6---6---6---6--|
G|---6---6---6---6---6---6---6---6---6---6---6---6-7---7---9---9----|
D|-7---7---9---9---7---7---9---9---7---7---9---9--------------------|
A|------------------------------------------------------------------|
E|------------------------------------------------------------------|
  CUANDO    SE    VA    DE    CASA   TRISTE   ME   PONGO

e|-------------------------------------------------------------------|
B|---6---6---6---6----6---6---6---6---6---6---6---6------------------|
G|-7---7---9---9----7---7---9---9---7---7---9---9-----6---6---6---6--|
D|--------------------------------------------------7---7---9---9----|
A|-------------------------------------------------------------------|
E|-------------------------------------------------------------------|
  ESTOY    TAN    ENAMORADO    DE    LA    NEGRA   TOMASA
e|------------------------------------------------------------------|
B|---------------------------------------------------6---6---6---6--|
G|---6---6---6---6---6---6---6---6---6---6---6---6-7---7---9---9----|
D|-7---7---9---9---7---7---9---9---7---7---9---9--------------------|
A|------------------------------------------------------------------|
E|------------------------------------------------------------------|
  CUANDO    SE    VA    DE    CASA   TRISTE   ME   PONGO

e|------------------------------------------------------------------|
B|---6---6---6---6---6---6---6---6---6---6---6---6---6---6---6---6--|
G|-7---7---9---9---7---7---9---9---7---7---9---9---7---7---9---9----|
D|------------------------------------------------------------------|
A|------------------------------------------------------------------|
E|------------------------------------------------------------------|

e|-------------------------------------------------------------------|
B|---6---6---6---6----6---6---6---6---6---6---6---6------------------|
G|-7---7---9---9----7---7---9---9---7---7---9---9-----6---6---6---6--|
D|--------------------------------------------------7---7---9---9----|
A|-------------------------------------------------------------------|
E|-------------------------------------------------------------------|
   ESTOY    TAN    ENAMORADO   DE   MI    NEGRA    PRECIOSA
e|------------------------------------------------------------------|
B|---------------------------------------------------6---6---6---6--|
G|---6---6---6---6---6---6---6---6---6---6---6---6-7---7---9---9----|
D|-7---7---9---9---7---7---9---9---7---7---9---9--------------------|
A|------------------------------------------------------------------|
E|------------------------------------------------------------------|
   QUE  CUANDO   SE   VA  DE   CASA  TRISTE  ME   PONGO

e|-------------------------------------------------------------------|
B|---6---6---6---6----6---6---6---6---6---6---6---6------------------|
G|-7---7---9---9----7---7---9---9---7---7---9---9-----6---6---6---6--|
D|--------------------------------------------------7---7---9---9----|
A|-------------------------------------------------------------------|
E|-------------------------------------------------------------------|
   ESTOY    TAN    ENAMORADO   DE   MI    NEGRA    PRECIOSA
e|------------------------------------------------------------------|
B|---------------------------------------------------6---6---6---6--|
G|---6---6---6---6---6---6---6---6---6---6---6---6-7---7---9---9----|
D|-7---7---9---9---7---7---9---9---7---7---9---9--------------------|
A|------------------------------------------------------------------|
E|------------------------------------------------------------------|
   QUE  CUANDO   SE   VA  DE   CASA  TRISTE  ME   PONGO

    A     G      F#m
e|--------------------|
B|--------------------|
G|--------------------|
D|--------------------|
A|--------------------|
E|--------------------|
    AY    AY     AY

e|-----------------------------------------------------------------------------|
B|-----------------------------------------------6---6---6---6---6---6---6---6-|
G|--------------6---6---6---6---6---6---6---6--7---7---9---9---7---7---9---9---|
D|------------7---7---9---9---7---7---9---9------------------------------------|
A|-----------------------------------------------------------------------------|
E|-----------------------------------------------------------------------------|
  ESA NEGRA LINDA             ME TIENE         LOCO              QUE ME
e|-------------------------------------------------------------------|
B|------------------------------------6---6---6---6---6---6---6---6--|
G|---6---6---6---6---6---6---6---6--7---7---9---9---7---7---9---9----|
D|-7---7---9---9---7---7---9---9-------------------------------------|
A|-------------------------------------------------------------------|
E|-------------------------------------------------------------------|
   COME        POQUITO A            POCO            ESA NEGRA

e|-------------------------------------------------------------------|
B|------------------------------------6---6---6---6---6---6---6---6--|
G|---6---6---6---6---6---6---6---6--7---7---9---9---7---7---9---9----|
D|-7---7---9---9---7---7---9---9-------------------------------------|
A|-------------------------------------------------------------------|
E|-------------------------------------------------------------------|
   LINDA         ME TIENE          LOCO            QUE ME
e|-----------------------------------------------------|
B|------------------------------------6---6---6---6--6-|
G|---6---6---6---6---6---6---6---6--7---7---9---9----7-|
D|-7---7---9---9---7---7---9---9-----------------------|
A|-----------------------------------------------------|
E|-----------------------------------------------------|
   COME          POQUITO A          POCO

*EN ESTA PARTE SE UTILIZA PALM MUTING EXCEPTO EN LA 1a CUERDA
Y SE TIENE QUE RASGUEAR O SI QUIERES PUEDES DEJAR DE TOCAR LA 1a CUERDA

e|-------10--10--8--8--6--6---------10--10--8--8--6--6--|
B|-6--6--6---6---6--6--6--6---6--6--6---6---6--6--6--6--|
G|-7--7--7---7---7--7--7--7---7--7--7---7---7--7--7--7--|
D|------------------------------------------------------|
A|------------------------------------------------------|
E|------------------------------------------------------|

e|-------10--10--8--8--6--6---------10--10--------------|
B|-6--6--6---6---6--6--6--6---6--6--6---6---6--6--6--6--|
G|-7--7--7---7---7--7--7--7---7--7--7---7---7--7--7--7--|
D|------------------------------------------------------|
A|------------------------------------------------------|
E|------------------------------------------------------|
   ESTOY   TAN  ENAMORADO   DE  LA  NEGRA  TOMASA

e|-------8--8---------------------------------------|
B|--------------------------------------------------|
G|-6--6--6--6--6--6--6--6---6--6--6--6--6--6--6--6--|
D|-7--7--7--7--7--7--7--7---7--7--7--7--7--7--7--7--|
A|--------------------------------------------------|
E|--------------------------------------------------|
   CUANDO  SE  VA  DE CASA  TRISTE  ME  PONGO

e|-------10--10--8--8--6--6---------10--10--------------|
B|-6--6--6---6---6--6--6--6---6--6--6---6---6--6--6--6--|
G|-7--7--7---7---7--7--7--7---7--7--7---7---7--7--7--7--|
D|------------------------------------------------------|
A|------------------------------------------------------|
E|------------------------------------------------------|
   ESTOY   TAN  ENAMORADO   DE  MI  NEGRA  PRECIOSA

e|-------8--8---------------------------------------|
B|--------------------------------------------------|
G|-6--6--6--6--6--6--6--6---6--6--6--6--------------|
D|-7--7--7--7--7--7--7--7---7--7--7--7--------------|
A|--------------------------------------------------|
E|--------------------------------------------------|
   CUANDO  SE  VA  DE CASA  TRISTE  ME  PONGO

 AQUI EMPIEZA EL SOLO DE TECLADO DE DIEGO
        (X3)                (X4)               (X4)               (X4)
e|------------------|------------------|------------------|------------------|
B|---6---6---6---6--|------------------|---6---6---6---6--|------------------|
G|-7---7---9---9----|---6---6---6---6--|-7---7---9---9----|---6---6---6---6--|
D|------------------|-7---7---9---9----|------------------|-7---7---9---9----|
A|------------------|------------------|------------------|------------------|
E|------------------|------------------|------------------|------------------|

                          A      G     F#m
e|------------------|------------------------|
B|---6---6---6---6--|------------------------|
G|-7---7---9---9----|------------------------|
D|------------------|------------------------|
A|------------------|------------------------|
E|------------------|------------------------|
                         AY      AY     AY  

e|-----------------------------------------------------------------------------|
B|-----------------------------------------------6---6---6---6---6---6---6---6-|
G|--------------6---6---6---6---6---6---6---6--7---7---9---9---7---7---9---9---|
D|------------7---7---9---9---7---7---9---9------------------------------------|
A|-----------------------------------------------------------------------------|
E|-----------------------------------------------------------------------------|
 ESA NEGRA LINDA             ME TIENE         LOCO              QUE ME
e|-------------------------------------------------------------------|
B|------------------------------------6---6---6---6---6---6---6---6--|
G|---6---6---6---6---6---6---6---6--7---7---9---9---7---7---9---9----|
D|-7---7---9---9---7---7---9---9-------------------------------------|
A|-------------------------------------------------------------------|
E|-------------------------------------------------------------------|
   COME        POQUITO A            POCO            ESA NEGRA

e|-------------------------------------------------------------------|
B|------------------------------------6---6---6---6---6---6---6---6--|
G|---6---6---6---6---6---6---6---6--7---7---9---9---7---7---9---9----|
D|-7---7---9---9---7---7---9---9-------------------------------------|
A|-------------------------------------------------------------------|
E|-------------------------------------------------------------------|
   LINDA         ME TIENE          LOCO            QUE ME
e|-------------------------------------------------------------------|
B|------------------------------------6---6---6---6---6---6---6---6--|
G|---6---6---6---6---6---6---6---6--7---7---9---9---7---7---9---9----|
D|-7---7---9---9---7---7---9---9-------------------------------------|
A|-------------------------------------------------------------------|
E|-------------------------------------------------------------------|
   COME          POQUITO A          POCO              LA LA LA...

* ASI SE TOCA HASTA QUE ACABA LA CANCION
e|-------------------------------------------------------------------|
B|------------------------------------6---6---6---6---6---6---6---6--|
G|---6---6---6---6---6---6---6---6--7---7---9---9---7---7---9---9----|
D|-7---7---9---9---7---7---9---9-------------------------------------|
A|-------------------------------------------------------------------|
E|-------------------------------------------------------------------|

ESO ES TODO ECHALE GANAS EN VERDAD ES MUY FACIL ESCUCHA LA CANCION PARA QUE
SEA MAS FACIL 
EN LA PARTE DEL CORO CASI NO SE ESCUCHA LA GUITARRA PERO SI VA ASI Y CUANDO
DICE AY PUSE LO ACORDES POR SI LOS QUIERES TOCAR PERO LA GUITARRA NO LO TOCA
LOS OTROS ACORDES QUE LLEVA SON: Dm Y A EN TODA LA CANCION

BUENO SI TIENES DUDAS, COMENTARIOS, SUGERENCIAS, CORRECCIONES O SI QUIERES
PLATICAR CON UN BUEN FAN DE LOS CAIFANES/JAGUARES 
            
Submit corrections


        La Negra Tomasa lessons Hard to play? Try these video lessons and learn fast La Negra Tomasa lessons
        
↑ Back to top | Tablatures and chords for acoustic guitar and electric guitar, ukulele, drums are parodies/interpretations of the original songs. You may use it for private study, scholarship, research or language learning purposes only