» » »

Cage The Elephant - Spiderhead Bass

Artists:  A B C D E F G H I J K L M N O P Q R S T U V W X Y Z # 

Spiderhead Bass

(ver. 2) Click to play this song!
Cage The Elephant
 Rating:
4.1/5 (31 vote)

 Spiderhead lessons Tabs too difficult? Try these video lessons and learn fast
 
                
[Intro]
G|---------------------------------|---------------------------------|
D|---------------------------------|---------------------------------|
A|-7---------------7---------------|-7-------7-------7-------7\------|
E|---------------------------------|---------------------------------|
   1 + + + 2 + + + 3 + + + 4 + + +   1 + + + 2 + + + 3 + + + 4 + + +

G|---------------------------------|-------------------------7-------|
D|-----------------5.--5.----------|---------------------5h7-----7---|\
A|---------5.--5.----------5.--5.--|-7.--7.--7.--7.--7.--------------| \
E|-3.--3.--------------------------|---------------------------------|  \
   1 + + + 2 + + + 3 + + + 4 + + +   1 + + + 2 + + + 3 + + + 4 + + +     \
                                                                          (x2)
G|---------------------------------|---------------------------------|   /
D|-----------------5.--5.----------|---------------------------------|  /
A|---------5.--5.----------5.--5.--|-7.--7.--7.--5.--5.--3.--3.--5---| /
E|-3.--3.--------------------------|---------------------------------|/
   1 + + + 2 + + + 3 + + + 4 + + +   1 + + + 2 + + + 3 + + + 4 + + +

[Verse 1] "I am the one ..."
G|---------------------------------|-------------------------7-------|
D|-----------------5.--5.----------|---------------------5h7-----7---|\
A|---------5.--5.----------5.--5.--|-7.--7.--7.--7.--7.--------------| \
E|-3.--3.--------------------------|---------------------------------|  \
   1 + + + 2 + + + 3 + + + 4 + + +   1 + + + 2 + + + 3 + + + 4 + + +     \
                                                                          (x3)
G|---------------------------------|---------------------------------|   /
D|-----------------5.--5.----------|---------------------------------|  /
A|---------5.--5.----------5.--5.--|-7.--7.--7.--5.--5.--3.--3.--5---| /
E|-3.--3.--------------------------|---------------------------------|/
   1 + + + 2 + + + 3 + + + 4 + + +   1 + + + 2 + + + 3 + + + 4 + + +

G|---------------------------------|-------------------------7-------|
D|-----------------5.--5.----------|---------------------5h7-----7---|
A|---------5.--5.----------5.--5.--|-7.--7.--7.--7.--7.--------------| 
E|-3.--3.--------------------------|---------------------------------|  
   1 + + + 2 + + + 3 + + + 4 + + +   1 + + + 2 + + + 3 + + + 4 + + +     
                                                                          
G|---------------------------------|---------------------------------|   
D|-----------------5.--5.----------|---------------------------------|  
A|---------5.--5.----------5.--7.--|---------------------------------| 
E|-3.--3.--------------------------|-7---7---7---7---7---7---7---7---|
   1 + + + 2 + + + 3 + + + 4 + + +   1 + + + 2 + + + 3 + + + 4 + + +

G|---------------------------------|
D|---------------------------------|
A|---------------------------------|
E|-5---5---5---5---5---5---5---7---|
   1 + + + 2 + + + 3 + + + 4 + + +  

[Chorus 1] "Spiders in my head ..."
G|---------------------------------|---------------------------------|   
D|---------------------------------|---------------------------------|  
A|-10--10--10--10--10--10--10--10--|-10--10--10--10--10--10--10--10--| 
E|---------------------------------|---------------------------------|
   1 + + + 2 + + + 3 + + + 4 + + +   1 + + + 2 + + + 3 + + + 4 + + +

G|---------------------------------|---------------------------------|   
D|---------------------------------|---------------------------------|  
A|-7---7-----------7---7-----------|-7---7-----------7---5---7---9---| 
E|---------5h7-5h7---------5h7-5h7-|---------5h7-5h7-----------------|
   1 + + + 2 + + + 3 + + + 4 + + +   1 + + + 2 + + + 3 + + + 4 + + +

G|---------------------------------|---------------------------------|   
D|---------------------------------|---------------------------------|  
A|-10--10--10--10--10--10--10--10--|-10--10--10--10--10--12--9---10--| 
E|---------------------------------|---------------------------------|
   1 + + + 2 + + + 3 + + + 4 + + +   1 + + + 2 + + + 3 + + + 4 + + +

G|---------------------------------|---------------------------------|   
D|---------------------------------|-----------------------------4---|  
A|-7---7-----------7---7-----------|-7---7-----------7---7---5-------| 
E|---------5h7-5h7---------5h7-5h7-|---------5h7-5h7-----------------|
   1 + + + 2 + + + 3 + + + 4 + + +   1 + + + 2 + + + 3 + + + 4 + + +

G|---------------------------------|---------------------------------|   
D|---------------------------------|---------------------------------|  
A|-----------------9---9---9---10--|-7-------7---7---7---5-------5---| 
E|-3-------3/----------------------|-------------------------7-------|
   1 + + + 2 + + + 3 + + + 4 + + +   1 + + + 2 + + + 3 + + + 4 + + +

G|---------------------------------|---------------------------------|   
D|---------------------------------|---------------------------------|  
A|-----------------9---9---9---10--|-7---7---7---7---7---5-----------| 
E|-3-------3/----------------------|-------------------------7---5---|
   1 + + + 2 + + + 3 + + + 4 + + +   1 + + + 2 + + + 3 + + + 4 + + +

G|---------------------------------|---------------------------------|   
D|---------------------------------|---------------------------------|  
A|-----------------9---9---9---10--|-7---7---7---7---7---7---7---7---| 
E|-3-------3---3/------------------|---------------------------------|
   1 + + + 2 + + + 3 + + + 4 + + +   1 + + + 2 + + + 3 + + + 4 + + +

G|---------------------------------|---------------------------------|   
D|---------------------------------|---------------------------------|  
A|-5-------5-------5-----------5---|-5-------------------5---5-------| 
E|---------------------5---5-------|-----------------------------5---|
   1 + + + 2 + + + 3 + + + 4 + + +   1 + + + 2 + + + 3 + + + 4 + + +

G|---------------------------------|-------------------------7-------|
D|-----------------5.--5.----------|---------------------5h7-----7---|
A|---------5.--5.----------5.--5.--|-7.--7.--7.--7.--7.--------------| 
E|-3.--3.--------------------------|---------------------------------|  
   1 + + + 2 + + + 3 + + + 4 + + +   1 + + + 2 + + + 3 + + + 4 + + +     
                                                                         
G|---------------------------------|---------------------------------|   
D|-----------------5.--5.----------|---------------------------------|  
A|---------5.--5.----------5.--5.--|-7.--7.--7.--5.--5.--3.--3.--5---| 
E|-3.--3.--------------------------|---------------------------------|
   1 + + + 2 + + + 3 + + + 4 + + +   1 + + + 2 + + + 3 + + + 4 + + +

[Verse 2] "I think you mother wants me dead ..."
G|---------------------------------|-------------------------7-------|
D|-----------------5.--5.----------|---------------------5h7-----7---|
A|---------5.--5.----------5.--5.--|-7.--7.--7.--7.--7.--------------| 
E|-3.--3.--------------------------|---------------------------------|  
   1 + + + 2 + + + 3 + + + 4 + + +   1 + + + 2 + + + 3 + + + 4 + + +     
                                                                         
G|---------------------------------|---------------------------------|   
D|-----------------5.--5.----------|---------------------------------|  
A|---------5.--5.----------5.--5.--|-7.--7.--7.--5.--5.--3.--3.--5---| 
E|-3.--3.--------------------------|---------------------------------|
   1 + + + 2 + + + 3 + + + 4 + + +   1 + + + 2 + + + 3 + + + 4 + + +

G|---------------------------------|-------------------------7-------|
D|-----------------5.--5.----------|---------------------5h7-----7---|
A|---------5.--5.----------5.--5.--|-7.--7.--7.--7.--7.--------------| 
E|-3.--3.--------------------------|---------------------------------|  
   1 + + + 2 + + + 3 + + + 4 + + +   1 + + + 2 + + + 3 + + + 4 + + +     
                                                                          
G|---------------------------------|---------------------------------|   
D|-----------------5.--5.----------|---------------------------------|  
A|---------5.--5.----------5-------|---------------------------------| 
E|-3.--3.--------------------------|-7---7---7---7---7---5---7---9---|
   1 + + + 2 + + + 3 + + + 4 + + +   1 + + + 2 + + + 3 + + + 4 + + +

G|---------------------------------|
D|---------------------------------|
A|---------------------------------|
E|-5---5---5---5---5---5---5---7---|
   1 + + + 2 + + + 3 + + + 4 + + +  

[Chorus 2] "Spiders in my head ..."
G|---------------------------------|---------------------------------|   
D|---------------------------------|---------------------------------|  
A|-10--10--10--10--10--10--10--10--|-10--10--10--10--10--10--10--9---| 
E|---------------------------------|---------------------------------|
   1 + + + 2 + + + 3 + + + 4 + + +   1 + + + 2 + + + 3 + + + 4 + + +

G|---------------------------------|---------------------------------|   
D|---------------------------------|---------------------------------|  
A|-7---7-----------7---7-----------|-7---7-----------7---5---7---9---| 
E|---------5h7-5h7---------5h7-5h7-|---------5h7-5h7-----------------|
   1 + + + 2 + + + 3 + + + 4 + + +   1 + + + 2 + + + 3 + + + 4 + + +

G|---------------------------------|---------------------------------|   
D|---------------------------------|---------------------------------|  
A|-10--10--10--10--10--10--10--10--|-10--10--10--10--10--12--9---10--| 
E|---------------------------------|---------------------------------|
   1 + + + 2 + + + 3 + + + 4 + + +   1 + + + 2 + + + 3 + + + 4 + + +

G|---------------------------------|---------------------------------|   
D|---------------------------------|-----------------------------4---|  
A|-7---7-----------7---7-----------|-7---7-----------7---7---5-------| 
E|---------5h7-5h7-----------------|---------5h7-5h7-----------------|
   1 + + + 2 + + + 3 + + + 4 + + +   1 + + + 2 + + + 3 + + + 4 + + +

G|---------------------------------|---------------------------------|   
D|---------------------------------|---------------------------------|  
A|-----------------9---9---9---10--|-7-------7---7---7---5-------5---| 
E|-3-------3/----------------------|-------------------------7-------|
   1 + + + 2 + + + 3 + + + 4 + + +   1 + + + 2 + + + 3 + + + 4 + + +

G|---------------------------------|---------------------------------|   
D|---------------------------------|---------------------------------|  
A|-----------------9---9---9---10--|-7---7---7---7---7---5-----------| 
E|-3-------3/----------------------|-------------------------7---5---|
   1 + + + 2 + + + 3 + + + 4 + + +   1 + + + 2 + + + 3 + + + 4 + + +

G|---------------------------------|---------------------------------|   
D|---------------------------------|---------------------------------|  
A|-----------------9---9---9---10--|-7---7---7---7---7---7---7---7/--| 
E|-3-------3---3/------------------|---------------------------------|
   1 + + + 2 + + + 3 + + + 4 + + +   1 + + + 2 + + + 3 + + + 4 + + +

[Bridge] "Baby I'm not blind ..."
G|---------------------------------|---------------------------------|   
D|---------------------------------|---------------------------------|  
A|-12------12------12----------12\-|----/14--14--14--14----------14--| (x3)
E|---------------------10--12------|---------------------12--14------|
   1 + + + 2 + + + 3 + + + 4 + + +   1 + + + 2 + + + 3 + + + 4 + + +

G|---------------------------------|---------------------------------|
D|---------------------------------|---------------------------------|
A|-12--12----------12--12----------|-12--12----------12--12----------| (Fast strumming on A, last bar)
E|---------------------------------|---------------------------------|  
   1 + + + 2 + + + 3 + + + 4 + + +   1 + + + 2 + + + 3 + + + 4 + + +     

G|---------------------------------|---------------------------------|
D|---------------------------------|---------------------------------|
A|-12--12----------12--12----------|-12--12----------12--12--12\-----| 
E|---------------------------------|---------------------------------|  
   1 + + + 2 + + + 3 + + + 4 + + +   1 + + + 2 + + + 3 + + + 4 + + +   
                                                                         
[Chorus 3] "Spiders in my head ..."
G|---------------------------------|---------------------------------|   
D|---------------------------------|---------------------------------|  
A|-10--10--10--10--10--10--10--10--|-10--10--10--10--10--10--10--9---| 
E|---------------------------------|---------------------------------|
   1 + + + 2 + + + 3 + + + 4 + + +   1 + + + 2 + + + 3 + + + 4 + + +

G|---------------------------------|---------------------------------|   
D|---------------------------------|---------------------------------|  
A|-7---7-----------7---7-----------|-7---7-----------7---5---7---9---| 
E|---------5h7-5h7-----------------|---------5h7-5h7-----------------|
   1 + + + 2 + + + 3 + + + 4 + + +   1 + + + 2 + + + 3 + + + 4 + + +

G|---------------------------------|---------------------------------|   
D|---------------------------------|---------------------------------|  
A|-10--10--10--10--10--10--10--10--|-10--10--10--10--10--12--9---10--| 
E|---------------------------------|---------------------------------|
   1 + + + 2 + + + 3 + + + 4 + + +   1 + + + 2 + + + 3 + + + 4 + + +

G|---------------------------------|---------------------------------|   
D|---------------------------------|-----------------------------4---|  
A|-7---7---7---7---7-------5---7---|-7-------5---7---7---7---7-------| 
E|---------------------7-----------|-----7---------------------------|
   1 + + + 2 + + + 3 + + + 4 + + +   1 + + + 2 + + + 3 + + + 4 + + +

G|---------------------------------|---------------------------------|   
D|---------------------------------|---------------------------------|  
A|-----------------9---9---9---10--|-7-------7---7---7---5-------5---| 
E|-3-------3/----------------------|-------------------------7-------|
   1 + + + 2 + + + 3 + + + 4 + + +   1 + + + 2 + + + 3 + + + 4 + + +

G|---------------------------------|---------------------------------|   
D|---------------------------------|---------------------------------|  
A|-----------------9---9---9---10--|-7---7---7---7---7---5-----------| 
E|-3-------3/----------------------|-------------------------7---5---|
   1 + + + 2 + + + 3 + + + 4 + + +   1 + + + 2 + + + 3 + + + 4 + + +

G|---------------------------------|---------------------------------|   
D|---------------------------------|---------------------------------|  
A|-----------------9---9---9---10--|-7---7---7---7---7---7---7---7---| 
E|-3-------3---3/------------------|---------------------------------|
   1 + + + 2 + + + 3 + + + 4 + + +   1 + + + 2 + + + 3 + + + 4 + + +

G|---------------------------------|
D|---------------------------------|
A|-5---5---5---5---5---5---5---5---| (I always hated this bit. It's just D)
E|---------------------------------|
   1 + + + 2 + + + 3 + + + 4 + + +  

[Outro]
G|-------------------------4-3-2---|---------------------------------|   
D|---------------------------------|-2-----2-5--4-2--0-2-4-----0-2---|  
A|-----------------2-----2---------|-------------------------3-------| (x4)
E|-3-----3-3-4-5-------------------|---------------------------------|
   1 + + + 2 + + + 3 + + + 4 + + +   1 + + + 2 + + + 3 + + + 4 + + +            
Submit corrections


        Spiderhead lessons Hard to play? Try these video lessons and learn fast Spiderhead lessons
        
↑ Back to top | Tablatures and chords for acoustic guitar and electric guitar, ukulele, drums are parodies/interpretations of the original songs. You may use it for private study, scholarship, research or language learning purposes only