» » »

Cage The Elephant - Mess Around Tabs

Artists:  A B C D E F G H I J K L M N O P Q R S T U V W X Y Z # 

Mess Around Tabs

(ver. 3) Click to play this song!
Cage The Elephant
 Rating:
3.8/5 (23 votes)

 Mess Around  lessons Tabs too difficult? Try these video lessons and learn fast
 
                Tuning:Standard

e|------------7-10--|--7~----|-------------7-10--|--12-10--8-7-8-10-------|
B|-------8-10-------|--------|--------8-10-------|------------------------|
G|--9--9------------|--------|--9--9-------------|------------------------|
D|------------------|--------|-------------------|------------------------|
A|------------------|--------|-------------------|------------------------|
E|------------------|--------|-------------------|------------------------|

e|------------7-10--|--7~----|--10~---|--12~---|
B|-------8-10-------|--------|--------|--------|
G|--9--9------------|--------|--------|--------|
D|------------------|--------|--------|--------|
A|------------------|--------|--------|--------|
E|------------------|--------|--------|--------|

e|--------|--------|-----10-12-14-12p10------|
B|-10~----|--12~~\-|--12----------------12---|
G|--------|--------|-------------------------|
D|--------|--------|-------------------------|
A|--------|--------|-------------------------|
E|--------|--------|-------------------------|

e|-12~----|-----10-12-14-12h14p12p10-----|-----10-12-14-12p10----|
B|--------|--12----------------------12~-|--12----------------12-|
G|--------|------------------------------|-----------------------|
D|--------|------------------------------|-----------------------|
A|--------|------------------------------|-----------------------|
E|--------|------------------------------|-----------------------|

e|-10~----|-12~----|--------|--------|-----10-12-14-12p10------|
B|--------|--------|-10~----|--12~~\-|--12----------------12---|
G|--------|--------|--------|--------|-------------------------|
D|--------|--------|--------|--------|-------------------------|
A|--------|--------|--------|--------|-------------------------|
E|--------|--------|--------|--------|-------------------------|
 
e|-12~----|-----10-12-14-12h14p12p10-----|--------|-----10-12-14-12h14p12p10-----|
B|--------|--12----------------------12~-|--12~---|--12--------------------------|
G|--------|------------------------------|--------|------------------------------|
D|--------|------------------------------|--------|------------------------------|
A|--------|------------------------------|--------|------------------------------|
E|--------|------------------------------|--------|------------------------------|

e|--10h12-|-14-12~-|--10h12-|-14-12~-|-----10-12-12~-|-14-12~-|
B|--------|--------|-----------------|--12-----------|--------|
G|--------|--------|-----------------|---------------|--------|
D|--------|--------|-----------------|---------------|--------|
A|--------|--------|-----------------|---------------|--------|
E|--------|--------|-----------------|---------------|--------|

e|---------------------------------------------------------------------------|
B|---------------------------------------------------------------------------|
G|---------------------------------------------------------------------------|
D|---------------------------------------------------------------------------|
A|---------------------------------------------------------------------------|
E|---------------------------------------------------------------------------|
            
Submit corrections


        Mess Around  lessons Hard to play? Try these video lessons and learn fast Mess Around  lessons
        
↑ Back to top | Tablatures and chords for acoustic guitar and electric guitar, ukulele, drums are parodies/interpretations of the original songs. You may use it for private study, scholarship, research or language learning purposes only