» » »

Cage The Elephant - James Brown Tabs

Artists:  A B C D E F G H I J K L M N O P Q R S T U V W X Y Z # 

James Brown Tabs

(ver. 2) Click to play this song!
Cage The Elephant
 Rating:
4.4/5 (17 votes)

 James Brown lessons Tabs too difficult? Try these video lessons and learn fast
 
                Tuning:EADGBE


Intro

    Gtr. 1

e|--8--8--8--------8--8--8--------6--6--6----8--8--8----11--11--11--11--11--11--11--11--|
B|--8--8--8--------8--8--8--------6--6--6----8--8--8----11--11--11--11--11--11--11--11--|
G|--------------------------------------------------------------------------------------|
D|--------------------------------------------------------------------------------------|
A|--------------------------------------------------------------------------------------|
E|--------------------------------------------------------------------------------------|
 |
 |   Gtr. 2
 |
e|--8--8--8--------8--8--8--------6--6--6----8--8--8----11--11--11--11--11--11--11--11--|
B|--8--8--8--------8--8--8--------6--6--6----8--8--8----11--11--11--11--11--11--11--11--|
G|--9--9--9--------9--9--9--------7--7--7----9--9--9----12--12--12--12--12--12--12--12--|
D|--10-10-10-------10-10-10-------8--8--8----10-10-10---13--13--13--13--13--13--13--13--|
A|--10-10-10-------10-10-10-------8--8--8----10-10-10---13--13--13--13--13--13--13--13--|
E|--8--8--8--------8--8--8--------6--6--6----8--8--8----11--11--11--11--11--11--11--11--|


Verse 

    Gtr. 1  

e|--8-8-8-8-8-8-8-8-8-8-8-8-8-8-8-8-13-13-13-13-13-13-13-13-15-15-15-15-11-11-11-11-----|
B|--8-8-8-8-8-8-8-8-8-8-8-8-8-8-8-8-13-13-13-13-13-13-13-13-15-15-13-15-11-11-11-11-----|
G|--------------------------------------------------------------------------------------| x2
D|--------------------------------------------------------------------------------------|
A|--------------------------------------------------------------------------------------|
E|--------------------------------------------------------------------------------------|

Pre-Chorus
                                                                     <-Let Ring -------->   
e|--8------------------------------------------------------------------11--11--11--11---|
B|--8----8-10-10-10-10/11~~----------------------8-10-10-10-10/11~~--13--13--13--13-----|
G|--9------------------------8----------------------------------------------------------|
D|--10-----------------------8-8-8-8-10-10----------------------------------------------|
A|--10-----------------------6-8-8-8-10-10----------------------------------------------|
E|--8--------------------------6-6-6/8--8-----------------------------------------------|

Chorus
                                               <----------1st Time------------->
e|--------------------------------------------------------------------------------------|
B|--------------------------------------------------------------------------------------|
G|--------8-8-----------8-8-----------8-8-----10-10-10-10-8-----------------------------|
D|--10-10-8-8-8-8-10-10-8-8-8-8-10-10-8-8-8-8-10-10-10-10-8-or-8-8-8-8-8-8-8-8----------|
A|--10-10-6-6-8-8-10-10-6-6-8-8-10-10-6-6-8-8-8--8--8--8--6----8p6-8p6-8p6-8p6----------|
E|--8--8------6-6-8--8------6-6-8--8------6-6------------------6-6-6-6-6-6-6-6----------|


  <---------2nd Time Also Play--------->
e|-------3-3-3-3-3-3-3-3-3-3-3-3-3-3-3-3--------|
B|-------3-3-3-3-3-3-3-3-3-3-3-3-3-3-3-3--------|
G|-------4-4-4-4-4-4-4-4-4-4-4-4-4-4-4-4--------|
D|--6----5-5-5-5-5-5-5-5-5-5-5-5-5-5-5-5--------|
A|--6----5-5-5-5-5-5-5-5-5-5-5-5-5-5-5-5--------|
E|--4----3-3-3-3-3-3-3-3-3-3-3-3-3-3-3-3--------|


Verse

Pre-Chorus

Chorus


Solo
                                                   
e|--6/8-8-6/8-8-6/8-8-6/8-8-6/8-8-6/8-8-6/8-8-6/8-8--------------------------------------------|
B|--------------------------------------------------8--8--8--8--8-----8-----8-----8------------|
G|--------------------------------------------------10-10-10-10-10b12-10b12-10b12-10b12--------|
D|---------------------------------------------------------------------------------------------|
A|---------------------------------------------------------------------------------------------|
E|---------------------------------------------------------------------------------------------|


e|-8--8--8--8--11-11-13\\----------------------------------------------------------------------|
B|-11-11-11-11------------11b13~11b13~11b13~11~9~8~8h9p8----8----------------------------------|
G|-------------------------------------------------------10---10-8----8-10b11r10-8-------------|
D|-----------------------------------------------------------------10--------------10-8--------|
A|--------------------------------------------------------------------------------------10-8-6-|
E|---------------------------------------------------------------------------------------------|

Interlude

e|---------------------------------------------------------------------------------------------|
B|---------------------------------------------------------------------------------------------|
G|-----8----8---------8----8-10--10-10-10-----------------------------8-8-8-8------------------|
D|-----8----8----8-10-8-10-8-10--10-10-10-x2--10-10-10-10-10-10-10-10---------10-10-8-8--x4----|
A|--10---10---10-8-10---10---8---8--8--8-------------------------------------------------------|
E|---------------------------------------------------------------------------------------------|

Bridge
                                                      Here Guitar 2 slowly pick slides up   
e|-----------------------------------------------------------------------------------------------------|
B|-----------------------------------------------------------------------------------------------------|
G|--8-8-8-8-10-10-10-10-12-12-12-12-13-13-13-13----13-13-13-13-12-12-12-12-10-10-10-10-8-8-8-8---------|
D|--8-8-8-8-10-10-10-10-12-12-12-12-13-13-13-13-x4-13-13-13-13-12-12-12-12-10-10-10-10-8-8-8-8-x4------|
A|--6-6-6-6-8--8--8--8--10-10-10-10-11-11-11-11----11-11-11-11-10-10-10-10-8--8--8--8--6-6-6-6---------|
E|-----------------------------------------------------------------------------------------------------|


Pre-Chorus

Chorus


Amplifier Settings:
Gain:7
Low:4
Mid:4
High:8
Reverb:3            
Submit corrections


        James Brown lessons Hard to play? Try these video lessons and learn fast James Brown lessons
        
↑ Back to top | Tablatures and chords for acoustic guitar and electric guitar, ukulele, drums are parodies/interpretations of the original songs. You may use it for private study, scholarship, research or language learning purposes only