» » »

Cage The Elephant - In One Ear Tabs

Artists:  A B C D E F G H I J K L M N O P Q R S T U V W X Y Z # 

In One Ear Tabs

(ver. 3) Click to play this song!
Cage The Elephant
 Rating:
3.6/5 (5 votes)
                This is my 1st tab write up on here and, its the 1st Cage the Elephant Tab soo... woo hoo! 


This is how it should sound also:



Intro

e ------------------------------------------------|
B ------------------------------------------------|
G ------------------------------------------------|
D -44-xx-77-xx-99---------------------------------|
A -44-xx-77-xx-99---------------------------------|
E -22-xx-55-xx-77---------------------------------|


Intro solo

(Not sure if this is right but you will get the gist of it)

e -----5-b^7p-----------|
B -5-7-------7----------|
G ----------------------|
D ----------------------|
A ----------------------|
E ----------------------|


Verses

e ------------------------------------------------|
B ------------------------------------------------|
G ------------------------------------------------|
D -444--7--444-99---------------------------------|
A -444--7--444-99---------------------------------|
E -222--5--222-77---------------------------------|




Hopefully thats helped you. Please e-mail me or tlk to me on MSN.
            
Submit corrections

↑ Back to top | Tablatures and chords for acoustic guitar and electric guitar, ukulele, drums are parodies/interpretations of the original songs. You may use it for private study, scholarship, research or language learning purposes only