» » »

Cage The Elephant - Come A Little Closer Bass

Artists:  A B C D E F G H I J K L M N O P Q R S T U V W X Y Z # 

Come A Little Closer Bass

(ver. 2) Click to play this song!
Cage The Elephant
 Rating:
4/5 (4 votes)

 Come A Little Closer lessons Tabs too difficult? Try these video lessons and learn fast
 
                This is in c#m. Some of the fills may not be in the song but I did it based off a video 
cover I did in which some people were asking for tabs.


This is the first tab I've done so if anything is confusing/hard to read or wrong, 
please fix it or let me know so I can fix it.

Thanks!

Verse 1

G|-------------------------------------------4-6--------------------------|
D|----------------------4-6--4-6--4-6--4-6-7----4--2-4--2-4--2-4/6-4------|
A|-4--2-4--2-4--2-4-6-7----------------------------------------------7-6-4|
E|------------------------------------------------------------------------|

G|---------------------------------------------------------------4-6------|
D|------------------------------------------4-6--4-6--4-6--4-6-7----4--2-4|
A|-2-4--2-4--2-----0-2-4--2-4--2-4--2-4-6-7-------------------------------|
E|-------------2-4--------------------------------------------------------|

G|------------------------------------------------------------------------|
D|--2-4--2-4/6-4-------------------4-6-4-2----------------------4-6--4-6--|
A|---------------7-6-4--2-4----------------4--2-4--2-4--2-4-6-7-----------|
E|------------------------------------------------------------------------|

G|-------8-9-8------------------------------------------------------------|
D|4-6--6-------6-4--2-4--2-4/6-4-----------4--6---------------------------|
A|-----------------------------7-6-4--4-----------------------------------|
E|------------------------------------------------------------------------|

Chorus - repeat twice for full chorus (same throughout entire song)

G|----------------------------6-4-----------------------------------------|
D|--------------------------------6-4-------------------------------------|
A|-----------------------4--4---------7-6-4-------------------------4--4--|
E|-5--5-5-5-5--2--2---2---------------------7-5--5-5-5-5--2--2---2--------|


G|------------------------------------------------------------------------|
D|-----4-6----------------------------------------------------------------|
A|-4-6---------2-4--------------------------------------------------------|
E|---------2-5-----5------------------------------------------------------|

Verse 2

G|--------------------------------------4-6-------------------------------|
D|-------------------4-6--4-6-6---4-6-7----4--2-4-4---2-4/6-4-------------|
A|-4--2-4-4---2-4-6-7-----------------------------------------7-6-4--2-4--|
E|------------------------------------------------------------------------|

G|-----------------------------------------8-9-8--------------------------|
D|-4-6-4-2-------------------4-6--4-6-6---6------6-4--2-4-4---2-4/6-4-----|
A|--------4--2-4-4---2-4-6-7-----------------------------------------7-6-4|
E|------------------------------------------------------------------------|

G|------------------------------------------------------------------------|
D|---4--6-----------------------------------------------------------------|
A|-4----------------------------------------------------------------------|
E|------------------------------------------------------------------------|

Chorus

Bridge - When it slows down to whole notes, repeat 8 times with the last two or three 
times rising in energy to 1/8th notes.

G|------------------------------------------------------------------------|
D|------------------------------------------------------------------------|
A|------------------------------------------------------------------------|
E|-2-2-2-2-2-2-2-2/5-5-5-5-5-5-5-5\2-2-2-2-2-2-2-2/5-5-5-5-5-5-5-5\2-2-2-2|

G|------------------------------------------------------------------------|
D|------------------------------------------------------------------------|
A|--------------------------4----------------------------4----------------|
E|2-2-2-2/5--------2-------------2--4--5--------2-------------2--4--5-----|

Chorus
            
Submit corrections


        Come A Little Closer lessons Hard to play? Try these video lessons and learn fast Come A Little Closer lessons
        
↑ Back to top | Tablatures and chords for acoustic guitar and electric guitar, ukulele, drums are parodies/interpretations of the original songs. You may use it for private study, scholarship, research or language learning purposes only