» » »

Cage The Elephant - Back Stabbin Betty Bass

Artists:  A B C D E F G H I J K L M N O P Q R S T U V W X Y Z # 

Back Stabbin Betty Bass

(ver. 1) Click to play this song!
Cage The Elephant
 Rating:
4/5 (4 votes)
                Standard Tuning
EADG

"Back Stabbin Betty" by Cage the Elephant

(My first tab so don't kill me over this if theres any errors)


Main Riff: (x20 or so, just listen)
G---------------------------------------|
D---------------------------------------|
A-----------------------------3-5-------|
E-5-5-0-3-5-5-0-3-5-5-0-3-5-5-----------|



at 1:18 and 2:14
it changes to this then goes back to the riff
(I'm not entirely sure about this part but this works for me)

G-------------------------|
D-------------------------|
A-5-5-5-5-5-5-5-5-----3-5-|
E-----------------3-5-----|
            
Submit corrections

↑ Back to top | Tablatures and chords for acoustic guitar and electric guitar, ukulele, drums are parodies/interpretations of the original songs. You may use it for private study, scholarship, research or language learning purposes only