» » »

Cage The Elephant - Aberdeen Bass

Artists:  A B C D E F G H I J K L M N O P Q R S T U V W X Y Z # 

Aberdeen Bass

(ver. 4) Click to play this song!
Cage The Elephant
 Rating:
4.3/5 (12 votes)

 Aberdeen lessons Tabs too difficult? Try these video lessons and learn fast
 
                [Intro]
G|-----------------|
D|-----------------|
A|-----------------|
E|-8-8-8-8-8-8-8-8-|

G|---------------------------------|
D|---------------------------------|
A|---------------------------------|
E|-3-3-3-3-7-7-7-7-8-8-8-8-8-8-8-8-|

G|---------------------------------|
D|---------------------------------|
A|---------------------------------|
E|-3-3-3-3-7-7-7-7-8-7-8-7-8-7-8-7-|

[Verse]
G|---------------------------------------------------------|
D|-5-5-5-7h9---------5-5-5-7h9-----------5-5-5-7h9---------|
A|-----------7-7-7-5-----------7-7-7-7h9-----------7-7-7-7-|
E|---------------------------------------------------------|

G|-----------------|
D|-------x-x-x-x-x-|
A|-3-3-3-x-x-x-x-x-|
E|-----------------|

G|---------------------------------------------------------|
D|-5-5-5-7h9---------5-5-5-7h9-----------5-5-5-7h9---------|
A|-----------7-7-7-5-----------7-7-7-7h9-----------7-7-7-7-|
E|---------------------------------------------------------|

G|-----------------|
D|-----------------|
A|-3-3-3-3-2-2-0-0-|
E|-----------------|

G|---------------------------------------------------------|
D|-5-5-5-7h9---------5-5-5-7h9-----------5-5-5-7h9---------|
A|-----------7-7-7-5-----------7-7-7-7h9-----------7-7-7-7-|
E|---------------------------------------------------------|

G|-----------------|
D|-----------------|
A|-3-3-3-3-2-2-0-0-|
E|-----------------|

[Chorus]
G|---------------------------------|
D|---------------------------------|
A|-----------------7-7-7-5-3-3-3-2-|
E|-3-3-3-2/7-7-7-7-----------------|

G|---------------------------------|
D|---------------------------------|
A|-----------------7-7-7-9-3-3-3-2-|
E|-3-3-3-2/7-7-7-7-----------------|

G|---------------------------------|
D|---------------------------------|
A|-----------------7-7-7-5-3-3-3-2-|
E|-3-3-3-2/7-7-7-7-----------------|

G|---------------------------------|
D|---------------------------------|
A|---------7-7-7-7-----------------|
E|-3-3-3-3---------8-7-8-7-8-7-8-7-|

[Verse]
G|---------------------------------------------------------|
D|-5-5-5-7h9---------5-5-5-7h9-----------5-5-5-7h9---------|
A|-----------7-7-7-5-----------7-7-7-7h9-----------7-7-7-7-|
E|---------------------------------------------------------|

G|-----------------|
D|-------x-x-x-x-x-|
A|-3-3-3-x-x-x-x-x-|
E|-----------------|

G|---------------------------------------------------------|
D|-5-5-5-7h9---------5-5-5-7h9-----------5-5-5-7h9---------|
A|-----------7-7-7-5-----------7-7-7-7h9-----------7-7-7-7-|
E|---------------------------------------------------------|

G|-----------------|
D|-----------------|
A|-3-3-3-3-2-2-0-0-|
E|-----------------|

G|---------------------------------------------------------|
D|-5-5-5-7h9---------5-5-5-7h9-----------5-5-5-7h9---------|
A|-----------7-7-7-5-----------7-7-7-7h9-----------7-7-7-7-|
E|---------------------------------------------------------|

G|-----------------|
D|-----------------|
A|-3-3-3-3-2-2-0-0-|
E|-----------------|

[Chorus]
G|---------------------------------|
D|---------------------------------|
A|-----------------7-7-7-5-3-3-3-2-|
E|-3-3-3-2/7-7-7-7-----------------|

G|---------------------------------|
D|---------------------------------|
A|-----------------7-7-7-9-3-3-3-2-|
E|-3-3-3-2/7-7-7-7-----------------|

G|---------------------------------|
D|---------------------------------|
A|-----------------7-7-7-5-3-3-3-2-|
E|-3-3-3-2/7-7-7-7-----------------|

G|---------------------------------|
D|---------------------------------|
A|---------7-7-7-7-----------------|
E|-3-3-3-3---------8-7-8-7-8-7-8-7-|

[Bridge] (4x)
G|----------------------------|
D|----------------------------|
A|-7----7------7--------------|
E|---7----7~-----7--7-8-8-7-5-|

G|-----------------|
D|-----------------|
A|-----------------|
E|-8-8-8-8-8-8-8-8-|

[Chorus]
G|---------------------------------|
D|---------------------------------|
A|-----------------7-7-7-5-3-3-3-2-|
E|-3-3-3-2/7-7-7-7-----------------|

G|---------------------------------|
D|---------------------------------|
A|-----------------7-7-7-9-3-3-3-2-|
E|-3-3-3-2/7-7-7-7-----------------|

G|---------------------------------|
D|---------------------------------|
A|-----------------7-7-7-5-3-3-3-2-|
E|-3-3-3-2/7-7-7-7-----------------|

[Outro]
G|-------------------------------------------------|
D|-------------------------------------------------|
A|---------7-7-7-7---------------------------------|
E|-3-3-3-3---------8-8-8-8-8-7-7-7-8-8-8-8-8-8-8-8-|

G|---------------------------------|
D|---------------------------------|
A|---------------------------------|
E|-3-3-3-3-7-7-7-7-8-8-8-8-8-8-8-8-|

G|--------------------|
D|--------------------|
A|--------------------|
E|-3-3-3-3-7-7-7-7-8~-|
            
Submit corrections


        Aberdeen lessons Hard to play? Try these video lessons and learn fast Aberdeen lessons
        
↑ Back to top | Tablatures and chords for acoustic guitar and electric guitar, ukulele, drums are parodies/interpretations of the original songs. You may use it for private study, scholarship, research or language learning purposes only