Home » C » Caesars Palace »

Caesars Palace - Cheap Glue Tabs

Artists:  A B C D E F G H I J K L M N O P Q R S T U V W X Y Z # 

Cheap Glue Tabs

(ver. 1) Click to play this song!
Caesars Palace
Tuning: Standard

It's not easy to tab out the rhythm in this format. There's a bouncy 4/4 feel to it 
where some of the pattern
is slower and other bits they fit the same pattern in but a bit quicker.

Verses
e|--------------6---------------------------|   x4 ? one round for each line below.
B|7---7---7-6-----6--6-4---4---4-7---7---7--|
G|--6---6--6--6-----6----4---4--4--6---6---6|
D|------------------------------------------|
A|------------------------------------------|
E|------------------------------------------|

Cheap glue I'm telling you, you can never make it stick.
Cheap glue I'm telling you, that it going to make you sick.
Cracked up in pieces and you still think it'll work this time.
I'm telling you again, you'll have to try a diff?rent kind.

Chorus
e|--------------------|--------------------| X2 ? One for each line below
B|7---7--7-7---7---7--|7---7--7-7---7---7--|
G|--8---8-8--8---8---8|--6---6-6--6---6---6|
D|--------------------|--------------------|
A|--------------------|--------------------|
E|--------------------|--------------------|

You think that it's going to make you feel alright.
You still think that it's going to make you feel alright.


e|----------------------|
B|7---7--7-7---7---7----| guitar stops here while
G|--8---8-8--8---8---8--| the song plays (hits D#min on ?bad?)
D|----------------------| D#min | C# | B
A|----------------------|
E|----------------------|

But cheap glue is just going to make you feel bad,


I'm telling you that it's never make me feel glad.
e|--------------------| On ?glad? you can start this to lead into the next verse.
B|7---7--7-7---7---7--|
G|--6---6-6--6---6---6|
D|--------------------|
A|--------------------|
E|--------------------|

Verse
Cheap glue I'm warning you, you'd better open up your eyes.
Cheap glue I'm telling you, that it just ain't worth the price.
You try your best to patch it together,
But you know that it ain't no use.
'Cause cheap glue will never hold,
It just makes you look a fool.

Chorus
Bridge (same as verse)
Chorus            
Submit corrections

↑ Back to top | Tablatures and chords for acoustic guitar and electric guitar, ukulele, drums are parodies/interpretations of the original songs. You may use it for private study, scholarship, research or language learning purposes only