Home » C » Caedmon's Call »

Caedmon's Call - There You Go Tabs

Artists:  A B C D E F G H I J K L M N O P Q R S T U V W X Y Z # 

There You Go Tabs

(ver. 1) Click to play this song!
Caedmon's Call


Intro:  

e------------------------------------------------------------------------|
B----3---3---3---3---3-----3---3---2----3---3---3---3---3-----3---3---2--|
G------2-------2-------2h4---2---2--------2-------2-------2h4---2---2----|
D--0-------4-------5------------------0-------4-------5------------------|
A------------------------------------------------------------------------|
E------------------------------------------------------------------------|
      Is  this    the strange feeling of you       working all to good

e-------------------------------------------------------------------|
B----3---3---3---3---3-----3---3---2----3---3---3---3---3-----3-----|
G------2-------2-------2h4---2---2--------2-------2-------2h4----2--|
D--0-------4-------5------------------0-------4-------5-------------|
A-------------------------------------------------------------------|
E-------------------------------------------------------------------|
     Cause I am so confused; Don't even ask for what I should


Verse 1:
   D      Bm      G        A           D       Bm      G        A
e--------------------------------------------------------------------------|
B----3---3---3---3---3-----3---3---2------3---3---3---3---3-----3---3---2--|
G------2-------2-------2h4---2---2----------2-------2-------2h4---2---2----|
D--0-------4-------5--------------------0-------4-------5------------------|
A--------------------------------------------------------------------------|
E--------------------------------------------------------------------------|
When I asked for and deserved a stone, you broke and gave your body as bread

   D       Bm      G       A         
e-------------------------------------|
B----3---3---3---3---3-----3---3---2--|
G------2-------2-------2h4---2---2----|
D--0-------4-------5------------------|
A-------------------------------------|
E-------------------------------------|
And even the stone that dropped down 

   D      Bm        G
e---------------------0------2------3------2-------|
B----3---3---3---3-------3------3------3------3----|
G------2-------2----0------0------0------0------0--|
D--0-------4---------------------------------------|
A--------------------------------------------------|
E--------------------------------------------------|
And rolled away spoke of the one who bled


Chorus:
D      A     G     
There you go working good from my bad
D      A     G
There you go making robes from my rags
D      A     G
There you go melting crowns from my calves
D      A     G
There you go working good of all I have
     G
Till all I have's not that bad


e--2h3---2---0---2----|
B------3---3---3---3--|
G---------------------|
D---------------------|
A---------------------|
E---------------------|


Verse 2: (same as v1)
When I asked for and deserved a serpent
You gave a net full of fish
And even the serpent that told the lie
When lifted high foretold the gift


Chorus x1

e------------------2h3---2---0--------|
B----3---3---3---3-----3---3---3---3--|
G------2-------2-----------------2----|
D--0-------4--------------------------|
A-------------------------------------|
E-------------------------------------|


Bridge:
A7         A7sus
For you so loved the unlovable
A7       A7sus         Badd4
That you gave the ineffable
            A2
That who so believes the unbelievable
Bsus4             A2
Will gain the unattainable


E, Bsus4, A2 x4


Outro Chorus:
D      A     G     
There you go working good from my bad
D      A     G
There you go making robes from my rags
D      A     G
There you go melting crowns from my calves
D      A     G
There you go working good of all I have
D      A     G
There you go
D      A     G
There you go
D      A     G
There you go
D      A     G
There you go
     G
Till all I have is not that bad

e------------------------------------------------------------------------2-|
B----3---3---3---3---3-----3---3---2----3---3---3---3---3-----3---3---2--3-|
G------2-------2-------2h4---2---2--------2-------2-------2h4---2---2----2-|
D--0-------4-------5------------------0-------4-------5------------------0-|
A--------------------------------------------------------------------------|
E--------------------------------------------------------------------------|
                                 It's not that bad...
            
Submit corrections

↑ Back to top | Tablatures and chords for acoustic guitar and electric guitar, ukulele, drums are parodies/interpretations of the original songs. You may use it for private study, scholarship, research or language learning purposes only