» » »

Cabecas No Ar - Baile Da Biblioteca Chords

Artists:  A B C D E F G H I J K L M N O P Q R S T U V W X Y Z # 

Baile Da Biblioteca Chords

(ver. 1) Click to play this song!
Cabecas No Ar
 Rating:
4.3/5 (20 votes)

 Baile Da Biblioteca lessons Tabs too difficult? Try these video lessons and learn fast
 
                [Intro]
B E  x4

e|--7--7--7--7---7--7--7--|
B|--7--10-9--7---9--7--7--|
G|--8--8--8--7---9--9--7--|
D|--9--7--7--7---9--9--7--|
A|--9--9--9--7---7--7--7--|
E|--7--7--7--7------------|

Change in tempo, then: B E  x4

[Verse 1]
      E
Sou o vosso professor
                      B
E sei de um baile de gala

Que se dá todas as noites
                     E
Nas estantes da tua sala
       E
Olha Ulisses o Argonauta
                       B
A dançar com o mar à proa

Aquele é o senhor Fernando
                       E
A dançar com a sua Pessoa

[Pre Chorus]
         C#m        E
Olha o mestre Gil Vicente
         C#m        E
Entre a raínha e o bobo
         C#m            E
E aquele à frente é o Aleixo
       C#m      E
É o poeta do povo

[Chorus]
    C#m          C          B        A
É o baile, é o baile, é o baile
    C#m          C          B        A
É o baile, é o baile, é o baile
    C#m          C          B        A
É o baile, é o baile, é o baile, é o baile
            B  E
Da biblioteca

[Interlude] 
 B  E  x4

[Verse 2]
      E
Sai o Zorro de rompante
                  B
Numa lombada de couro

A declarar ser migrante
                  E
Para a ilha do tesouro
     E
Ao piano o Conde d'Abranhos
                     B
Não dá sinais de abrandar

É preciso o sol nascer
                 E
Para o baile acabar

[Pre Chorus]
         C#m         E
Como se anda Dom Quixote
    C#m           E
Largando da mão a lança
 C#m              E
Vamos dormir, criaturas
  C#m                 E
Que amanhã também se dança

[Chrorus]
    C#m          C          B        A
É o baile, é o baile, é o baile
    C#m          C          B        A
É o baile, é o baile, é o baile
    C#m          C          B        A
É o baile, é o baile, é o baile, é o baile
            B  E
Da biblioteca

[Solo]

e|-------------16-12--------11--11-12-14-14-12-11----------------------------|
B|---9-10-12----------12-14-----------------------14-12-14-12-10--12-10-10-9-|
G|---------------------------------------------------------------------------|
D|---------------------------------------------------------------------------|
A|---------------------------------------------------------------------------|
E|---------------------------------------------------------------------------|


e|--19-21-------19--19-19-19-16-14---14-16-17--17-17-16-14-16-19---19-14----------|
B|--------19-21----------------------------------------------------------15-14-15-|
G|--------------------------------------------------------------------------------|
D|--------------------------------------------------------------------------------|
A|--------------------------------------------------------------------------------|
E|--------------------------------------------------------------------------------|


[Pre Chorus]
         C#m        E
Olha o mestre Gil Vicente
         C#m        E
Entre a raínha e o bobo
         C#m            E
E aquele à frente é o Aleixo
       C#m      E
É o poeta do povo



[Chorus]
    C#m          C          B        A
É o baile, é o baile, é o baile
    C#m          C          B        A
É o baile, é o baile, é o baile
    C#m          C          B        A
É o baile, é o baile, é o baile, é o baile
            B  E
Da biblioteca

[Outro]
B E
            
Submit corrections


        Baile Da Biblioteca lessons Hard to play? Try these video lessons and learn fast Baile Da Biblioteca lessons
        
↑ Back to top | Tablatures and chords for acoustic guitar and electric guitar, ukulele, drums are parodies/interpretations of the original songs. You may use it for private study, scholarship, research or language learning purposes only