» » »

Buzzcocks - Tabs

Artists:  A B C D E F G H I J K L M N O P Q R S T U V W X Y Z # 

Tabs

(ver. 2) Click to play this song!
Buzzcocks
 Rating:
4.3/5 (6 votes)

  lessons Tabs too difficult? Try these video lessons and learn fast
 
                [Chorus]
  A                  B
e|5-----5-----5-5---|--------7-----------|
B|5-----5-----5-5---|------------7-------|
G|6-----6-----6-6---|8-8-8----------8----|
D|7-----7-----7-7---|9-9-9---------------|
A|7-----7-----7-7---|9-9-9---------------|
E|5-----5-----5-5---|7-7-7---------------|X4

[Verse]
  E                B                A                E
e|----------------|----------------|----------------|----------------|
B|----------------|4-4-4-4-4-4-4-4-|2-2-2-2-2-2-2-2-|----------------|
G|1-1-1-1-1-1-1-1-|4-4-4-4-4-4-4-4-|2-2-2-2-2-2-2-2-|1-1-1-1-1-1-1-1-|
D|2-2-2-2-2-2-2-2-|4-4-4-4-4-4-4-4-|2-2-2-2-2-2-2-2-|2-2-2-2-2-2-2-2-|
A|2-2-2-2-2-2-2-2-|2-2-2-2-2-2-2-2-|0-0-0-0-0-0-0-0-|2-2-2-2-2-2-2-2-|
E|0-0-0-0-0-0-0-0-|----------------|----------------|0-0-0-0-0-0-0-0-|

e|-------------------------------------------------------------------|
B|-------------------------------------------------------------------|
G|-------------------------------------------------------------------|
D|----------------------------------------4--5---7-7/9---------------|
A|-------------1-1/2------4--5--6-6/7-------------------------------|
E|0------2--3--------------------------------------------------------|


[Solo](Verse Chords A B x4)
e|-----------------------------------------------------------------------------|
B|5---7-5-4--5--7--5---7-5-4--5--7--5---7-5-4--5--7--5---7-5--8-7-5---5-7-5-5--|
G|-----------------------------------------------------------------------------|
D|-----------------------------------------------------------------------------|
A|-----------------------------------------------------------------------------|
E|-----------------------------------------------------------------------------|

[Outro]
  A                  B                         E
e|5-----5-----5-5---|--------7-----------|    |0--------|
B|5-----5-----5-5---|------------7-------|    |0--------|
G|6-----6-----6-6---|8-8-8----------8----|    |1--------|
D|7-----7-----7-7---|9-9-9---------------|    |2--------|
A|7-----7-----7-7---|9-9-9---------------|    |2--------|
E|5-----5-----5-5---|7-7-7---------------|X4  |0--------|            
Submit corrections


         lessons Hard to play? Try these video lessons and learn fast  lessons
        
↑ Back to top | Tablatures and chords for acoustic guitar and electric guitar, ukulele, drums are parodies/interpretations of the original songs. You may use it for private study, scholarship, research or language learning purposes only