» » »

Butterfly Effect - Tbe Cravee Tabs

Artists:  A B C D E F G H I J K L M N O P Q R S T U V W X Y Z # 

Tbe Cravee Tabs

(ver. 1) Click to play this song!
Butterfly Effect
 Rating:
4/5 (4 votes)

 Tbe Cravee lessons Tabs too difficult? Try these video lessons and learn fast
 
                tuning: Standard
This is a great song and i hope you enjoy it!! Its better than the last 1 i posted!

Key: \slide down /slide up ~let ring

intro
|---11-11-11-11-11-11-11-11-11--11\-10-10-10-10\-8--8-8-8-8----------|
|---x--x--x--x--x--x--x--x--x---x-\-x--x--x--x-\-x--x-x-x-x----------|
|---8--8--8--8--8--8--8--8--8---8-\-7--7--7--7-\-5--5-5-5-5----------|x4
|-0------------------------------------------------------------------|
|-0------------------------------------------------------------------|
|-0------------------------------------------------------------------|

Verse
|-----------------------------|
|-----------------------------|
|-5---5---5-3-----------------|
|-5-6-5-6-5-3--4-3~-----------|x4
|-3-6-3-6-3-1--4-3~-----------|
|-3-4-3-4-3-1--2-1~-----------|

chorus 1
|----------------------------------|
|----------------------------------|
|----------------10\-7-/-8---------|
|-6-6-6-6-6-6-6--x-\-x-/-x---------|
|-6-6-6-6-6-6-6--8-\-5-/-6---------|
|-4-4-4-4-4-4-4--------------------|

|---11-11-11-11-11-11-11-11--11\-10-10-10-10\-8--8-8-8-8-------|
|---x--x--x--x--x--x--x--x---x-\-x--x--x--x-\-x--x-x-x-x-------|
|---8--8--8--8--8--8--8--8---8-\-7--7--7--7-\-5--5-5-5-5-------|
|-0------------------------------------------------------------|x2
|-0------------------------------------------------------------|
|-0------------------------------------------------------------|

Refrain
|---11-11-11-11-11-11-11-11--11\-10-10-10-10\-8--8-8-8-8-------|
|---x--x--x--x--x--x--x--x---x-\-x--x--x--x-\-x--x-x-x-x-------|
|---8--8--8--8--8--8--8--8---8-\-7--7--7--7-\-5--5-5-5-5-------|
|-0------------------------------------------------------------|x2
|-0------------------------------------------------------------|
|-0------------------------------------------------------------|

verse2

|-----------------------|
|-----------------------|
|-5---5---5-3-----------|
|-5-6-5-6-5-3--4-3~-----|
|-3-6-3-6-3-1--4-3~-----|x4
|-3-4-3-4-3-1--2-1~-----|

chorus 2
|-----------------------------|
|-----------------------------|
|----------------10\-7-/-8----|
|-6-6-6-6-6-6-6--x-\-x-/-x----|
|-6-6-6-6-6-6-6--8-\-5-/-6----|
|-4-4-4-4-4-4-4---------------|

|-11-11-11-11-11-11-11-11--11\-10-10-10-10/-13--13-13-13-13----------|
|-x--x--x--x--x--x--x--x---x-\-x--x--x--x-/-x---x--x--x--x-----------|
|-8--8--8--8--8--8--8--8---8-\-7--7--7--7-/-10--10-10-10-10----------|
|--------------------------------------------------------------------|
|--------------------------------------------------------------------|
|--------------------------------------------------------------------|

|-----------------------------|
|-----------------------------|
|----------------10\-7-/-8----|
|-6-6-6-6-6-6-6--x-\-x-/-x----|
|-6-6-6-6-6-6-6--8-\-5-/-6----|
|-4-4-4-4-4-4-4---------------|

|-11-11-11-11-11-11-11-11--11/-13-13-13-13\-10--10-10-10-10------|
|-x--x--x--x--x--x--x--x---x-/-x--x--x--x-\-x---x--x--x--x-------|
|-7--7--7--7--7--7--7--7---7-/-10-10-10-10\-7---7--7--7--7-------|
|----------------------------------------------------------------|
|----------------------------------------------------------------|
|----------------------------------------------------------------|

|-----------------------------|
|-----------------------------|
|----------------10\-7-/-8----|
|-6-6-6-6-6-6-6--x-\-x-/-x----|
|-6-6-6-6-6-6-6--8-\-5-/-5----|
|-4-4-4-4-4-4-4---------------|

|-11-11-11-11-11-11-11-11--11\-10-10-10-10/-13--13-13-13-13-------|
|-x--x--x--x--x--x--x--x---x-\-x--x--x--x-/-x---x--x--x--x--------|
|-8--8--8--8--8--8--8--8---8-\-7--7--7--7-/-10--10-10-10-10-------|
|-----------------------------------------------------------------|
|-----------------------------------------------------------------|
|-----------------------------------------------------------------|

|-----------------------------|
|-----------------------------|
|----------------10\-7-/-8----|
|-6-6-6-6-6-6-6--x-\-x-/-x----|
|-6-6-6-6-6-6-6--8-\-5-/-5----|
|-4-4-4-4-4-4-4---------------|

|-11-11-11-11-11-11-11-11--11\-10-10-10-10\-8--8-8-8-8--------|
|-x--x--x--x--x--x--x--x---x-\-x--x--x--x-\-x--x-x-x-x--------|
|-8--8--8--8--8--8--8--8---8-\-7--7--7--7-\-5--5-5-5-5--------|
|-------------------------------------------------------------|
|-------------------------------------------------------------|
|-------------------------------------------------------------|

more to come soon
            
Submit corrections


        Tbe Cravee lessons Hard to play? Try these video lessons and learn fast Tbe Cravee lessons
        
↑ Back to top | Tablatures and chords for acoustic guitar and electric guitar, ukulele, drums are parodies/interpretations of the original songs. You may use it for private study, scholarship, research or language learning purposes only