» » »

Butterfly Effect - Pure Tabs

Artists:  A B C D E F G H I J K L M N O P Q R S T U V W X Y Z # 

Pure Tabs

(ver. 1) Click to play this song!
Butterfly Effect
 Rating:
4/5 (4 votes)

 Pure lessons Tabs too difficult? Try these video lessons and learn fast
 
                I saw this band a couple of days ago at the Annandale... This
band is seriously the biggest thing in music Australia has at
the moment.  They rock!  I suggest you go see them live if you
can to get the full experience.  You'll never turn back.  Either
appereance.  I hope this helps, but if you need more help playing
tab either, unless you ask me first of course.  Enjoy!


                                      PURE
                       As recorded by The Butterfly Effect
                     (From the 2001 EP THE BUTTERFLY EFFECT)

Words and Music by The Butterfly Effect

  Moderate Rock Q=86
 4/4
  Gtr I
                ~~~~~~~~~~~
|-----------|-----------------|
|-----------|-----------------|
|-----------|-----------------|
|-----------|-----------------|
|-----------|-----------------|
|-12--------|-(12)----(12)----|


   Intro
||-----------------------------|----------------------|
||o----------------------------|----------------------|
||-----------------------------|----------------------|
||--------10-------10-------10-|-----10-----10-----10-|
||o----------------------------|-8-8----8-8----8-8----|
||--12-12----12-12----12-12----|----------------------|


                                 ~
|----------------------------|-----------------------||
|----------------------------|----------------------o||
|----------------------------|-----------------------||
|-------10-------10-------10-|-9-----------/10-(10)--||
|----------------------------|---8----(8)-----------o||
|-12-12----12-12----12-12----|-----------------------||


  Gtr II
                                             PM|   PM
|----------------------|-----------------------------|
|----------------------|-----------------------------|
|----------------------|-----------------------------|
|-0--0-0-0-0-0-0-0-0-0-|-3--3-3-3--3---3--3--0-0---0-|
|-0--0-0-0-0-0-0-0-0-0-|-3--3-3-3--3---3--3--0-0---0-|
|-0--0-0-0-0-0-0-0-0-0-|-3--3-3-3--3---3--3--0-0---0-|
|
| Gtr I
|    ~                      ~~~~~~~~~~~~~~
|----------------------|-----------------------------|
|----------------------|-----------------------------|
|----5-----------------|----5-----(5)-(5)------------|
|----------------------|-----------------------------|
|----------------------|-----------------------------|
|----------------------|-----------------------------|


|----------------------|-----------------------------||
|----------------------|-----------------------------||
|----------------------|-----------------------------||
|-0--0-0-0-0-0-0-0-0-0-|-3--3-3-3--3---3--3--3-3-3---||
|-0--0-0-0-0-0-0-0-0-0-|-3--3-3-3--3---3--3--3-3-3---||
|-0--0-0-0-0-0-0-0-0-0-|-3--3-3-3--3---3--3--3-3-3---||
|
|    ~                      ~~~~~~~~~~~~~~
|----------------------|-----------------------------||
|----------------------|-----------------------------||
|----5-----------------|----4-----(4)-(4)------------||
|----------------------|-----------------------------||
|----------------------|-----------------------------||
|----------------------|-----------------------------||


   Verse
    Gtr I
||-----------------------------|----------------------|
||o----------------------------|----------------------|
||-----------------------------|----------------------|
||--------10-------10-------10-|-----10-----10-----10-|
||o----------------------------|-8-8----8-8----8-8----|
||--12-12----12-12----12-12----|----------------------|


                                 ~~~~~~~~~
|----------------------------|----------------------||
|----------------------------|---------------------o||
|----------------------------|----------------------||
|-------10-------10-------10-|-9--------------------||
|----------------------------|---8----(8)--(8)-(8)-o||
|-12-12----12-12----12-12----|----------------------||


 4/4
  Gtr I
                ~~~~~~~~~~~
|-----------|-----------------|
|-----------|-----------------|
|-----------|-----------------|
|-----------|-----------------|
|-----------|-----------------|
|-12--------|-(12)----(12)----|


|----------------------------|----------------------|
|----------------------------|----------------------|
|----------------------------|----------------------|
|-------10-------10-------10-|-----10-----10-----10-|
|----------------------------|-8-8----8-8----8-8----|
|-12-12----12-12----12-12----|----------------------|


                                 ~~~~~~~~~
|----------------------------|---------------------||
|----------------------------|---------------------||
|----------------------------|---------------------||
|-------10-------10-------10-|-9-------------------||
|----------------------------|---8----(8)--(8)-(8)-||
|-12-12----12-12----12-12----|---------------------||


 Pre-Chorus
  Gtr II
                                             PM|   PM
|----------------------|-----------------------------|
|----------------------|-----------------------------|
|----------------------|-----------------------------|
|-0--0-0-0-0-0-0-0-0-0-|-3--3-3-3--3---3--3--0-0---0-|
|-0--0-0-0-0-0-0-0-0-0-|-3--3-3-3--3---3--3--0-0---0-|
|-0--0-0-0-0-0-0-0-0-0-|-3--3-3-3--3---3--3--0-0---0-|
|
| Gtr I
|    ~                      ~~~~~~~~~~~~~~
|----------------------|-----------------------------|
|----------------------|-----------------------------|
|----5-----------------|----5-----(5)-(5)------------|
|----------------------|-----------------------------|
|----------------------|-----------------------------|
|----------------------|-----------------------------|


  Gtr II
                                             PM|
|----------------------|---------------------------|
|----------------------|---------------------------|
|----------------------|---------------------------|
|-0--0-0-0-0-0-0-0-0-0-|-3--3-3-3--3---3--3--0-0---|
|-0--0-0-0-0-0-0-0-0-0-|-3--3-3-3--3---3--3--0-0---|
|-0--0-0-0-0-0-0-0-0-0-|-3--3-3-3--3---3--3--0-0---|
|
| Gtr I
|    ~                      ~~~~~~~~~~~~~~
|----------------------|---------------------------|
|----------------------|---------------------------|
|----5-----------------|----4-----(4)-(4)----------|
|----------------------|---------------------------|
|----------------------|---------------------------|
|----------------------|---------------------------|


   Chorus
    Gtrs I, II
                                                                 4x
||---------------------------------|-----------------------------||
||o-----12-12-12-12-------15-15-15-|-----10-10-10-10-10-8-8-8-8-o||
||------11-11-11-11-------14-14-14-|------9--9--9--9--9-7-7-7-7--||
||--9-9--9--9--9--9-12-12-12-12-12-|-7-7--7--7--7--7--7-5-5-5-5--||
||o-9-9--9--9--9--9-12-12-12-12-12-|-7-7--7--7--7--7--7-5-5-5-5-o||
||--9-9--9--9--9--9-12-12-12-12-12-|-7-7--7--7--7--7--7-5-5-5-5--||


 4/4
  Gtr I
                ~~~~~~~~~~~~~~~~~
|-----------|------------------------|
|-----------|------------------------|
|-----------|------------------------|
|-----------|------------------------|
|-----------|------------------------|
|-12--------|-(12)----------(12)-----|
|
| Gtr III
|-----------|--------<12>------------|
|-----------|-<12>-------------------|
|-----------|---------------<12>-----|
|-----------|------------------------|
|-----------|------------------------|
|-----------|------------------------|


   Verse
    Gtr I
||-----------------------------|----------------------|
||o----------------------------|----------------------|
||-----------------------------|----------------------|
||--------10-------10-------10-|-----10-----10-----10-|
||o----------------------------|-8-8----8-8----8-8----|
||--12-12----12-12----12-12----|----------------------|


                                 ~~~~~~~~~
|----------------------------|----------------------||
|----------------------------|---------------------o||
|----------------------------|----------------------||
|-------10-------10-------10-|-9--------------------||
|----------------------------|---8----(8)--(8)-(8)-o||
|-12-12----12-12----12-12----|----------------------||


   Pre-Chorus
    Gtr II
                                               PM|   PM
                                                        3x
||-----------------------|------------------------------||
||o----------------------|-----------------------------o||
||-----------------------|------------------------------||
||--0--0-0-0-0-0-0-0-0-0-|-3--3-3-3--3---3--3--0-0---0--||
||o-0--0-0-0-0-0-0-0-0-0-|-3--3-3-3--3---3--3--0-0---0-o||
||--0--0-0-0-0-0-0-0-0-0-|-3--3-3-3--3---3--3--0-0---0--||
|
|   Gtr I
|      ~                      ~~~~~~~~~~~~~~
|                                                       3x
||-----------------------|------------------------------||
||o----------------------|-----------------------------o||
||-----5-----------------|----5-----(5)-(5)-------------||
||-----------------------|------------------------------||
||o----------------------|-----------------------------o||
||-----------------------|------------------------------||


  Gtr II
                                             PM|
|----------------------|---------------------------||
|----------------------|---------------------------||
|----------------------|---------------------------||
|-0--0-0-0-0-0-0-0-0-0-|-3--3-3-3--3---3--3--0-0---||
|-0--0-0-0-0-0-0-0-0-0-|-3--3-3-3--3---3--3--0-0---||
|-0--0-0-0-0-0-0-0-0-0-|-3--3-3-3--3---3--3--0-0---||
|
| Gtr I
|    ~                      ~~~~~~~~~~~~~~
|----------------------|---------------------------||
|----------------------|---------------------------||
|----5-----------------|----4-----(4)-(4)----------||
|----------------------|---------------------------||
|----------------------|---------------------------||
|----------------------|---------------------------||


   Chorus
    Gtrs I, II
                                                                 4x
||---------------------------------|-----------------------------||
||o-----12-12-12-12-------15-15-15-|-----10-10-10-10-10-8-8-8-8-o||
||------11-11-11-11-------14-14-14-|------9--9--9--9--9-7-7-7-7--||
||--9-9--9--9--9--9-12-12-12-12-12-|-7-7--7--7--7--7--7-5-5-5-5--||
||o-9-9--9--9--9--9-12-12-12-12-12-|-7-7--7--7--7--7--7-5-5-5-5-o||
||--9-9--9--9--9--9-12-12-12-12-12-|-7-7--7--7--7--7--7-5-5-5-5--||


 Bridge
  Gtr IV
|---------------------------|---------------------------|
|---------------------------|---------------------------|
|---------------------------|---------------------------|
|---------------------------|---------------------------|
|-9-0-(0)-9-0-(0)-9-9-9-0-9-|-9-0-(0)-9-0-(0)-9-9-9-0-9-|
|-9-0-(0)-9-0-(0)-9-9-9-0-9-|-9-0-(0)-9-0-(0)-9-9-9-0-9-|
|
| Gtr V
|---------------------------|---------------------------|
|---------------------------|---------------------------|
|---------------------------|---------------------------|
|---------------------------|---------------------------|
|---------------------------|-9-0-(0)-9-0-(0)-9-9-9-0-9-|
|---------------------------|-9-0-(0)-9-0-(0)-9-9-9-0-9-|


  Gtrs I, II
|---------------------------|---------------------------|
|---------------------------|---------------------------|
|---------------------------|---------------------------|
|-9-0-(0)-9-0-(0)-9-9-9-0-9-|-9-0-(0)-9-0-(0)-9-9-9-0-9-|
|-9-0-(0)-9-0-(0)-9-9-9-0-9-|-9-0-(0)-9-0-(0)-9-9-9-0-9-|
|-9-0-(0)-9-0-(0)-9-9-9-0-9-|-9-0-(0)-9-0-(0)-9-9-9-0-9-|


                                                  PM--|
|---------------------------|---------------------------|
|---------------------------|---------------------------|
|---------------------------|---------------------------|
|-9-0-(0)-9-0-(0)-9-9-9-0-9-|-9-0-(0)-9-0-(0)-9-9-0-0-0-|
|-9-0-(0)-9-0-(0)-9-9-9-0-9-|-9-0-(0)-9-0-(0)-9-9-0-0-0-|
|-9-0-(0)-9-0-(0)-9-9-9-0-9-|-9-0-(0)-9-0-(0)-9-9-0-0-0-|


|---------------------------|---------------------------|
|---------------------------|---------------------------|
|---------------------------|---------------------------|
|-3-0-(0)-3-0-(0)-3-3-3-0-3-|-3-0-(0)-3-0-(0)-3-3-3-0-3-|
|-3-0-(0)-3-0-(0)-3-3-3-0-3-|-3-0-(0)-3-0-(0)-3-3-3-0-3-|
|-3-0-(0)-3-0-(0)-3-3-3-0-3-|-3-0-(0)-3-0-(0)-3-3-3-0-3-|


                                                  Gtr II
|---------------------------|----------------------------|
|---------------------------|----------------------------|
|---------------------------|----------------------------|
|-3-0-(0)-3-0-(0)-3-3-3-0-3-|-3-0-(0)-3-0-(0)-3-3-0-0--0-|
|-3-0-(0)-3-0-(0)-3-3-3-0-3-|-3-0-(0)-3-0-(0)-3-3-0-0--0-|
|-3-0-(0)-3-0-(0)-3-3-3-0-3-|-3-0-(0)-3-0-(0)-3-3-0-0--0-|


  Gtr II
|----------|---------------|
|----------|---------------|
|----------|---------------|
|-0--------|-3------0-0--0-|
|-0--------|-3------0-0--0-|
|-0--------|-3------0-0--0-|
|
| Gtr I
|----------|---------------|
|----------|---------------|
|-5--------|-5-------------|
|----------|---------------|
|----------|---------------|
|----------|---------------|


  Gtr II
|----------|---------------|
|----------|---------------|
|----------|---------------|
|-0--------|-3------0-0--0-|
|-0--------|-3------0-0--0-|
|-0--------|-3------0-0--0-|
|
| Gtr I
|----------|---------------|
|----------|---------------|
|-5--------|-5-------------|
|----------|---------------|
|----------|---------------|
|----------|---------------|


   Outro
    Gtr II
                                               PM|   PM
                                                        3x
||-----------------------|------------------------------||
||o----------------------|-----------------------------o||
||--5--5-5-5-5-5-5-5-5-5-|-5--5-5-5--5---5--5-----------||
||--0--0-0-0-0-0-0-0-0-0-|-3--3-3-3--3---3--3--0-0---0--||
||o-0--0-0-0-0-0-0-0-0-0-|-3--3-3-3--3---3--3--0-0---0-o||
||--0--0-0-0-0-0-0-0-0-0-|-3--3-3-3--3---3--3--0-0---0--||
|
|   Gtr I
|      ~                      ~~~~~~~~~~~~~~
|                                                       3x
||-----------------------|------------------------------||
||o----------------------|-----------------------------o||
||-----5-----------------|----5-----(5)-(5)-------------||
||-----------------------|------------------------------||
||o----------------------|-----------------------------o||
||-----------------------|------------------------------||


|----------------------|------------------*|
|----------------------|------------------*|
|-5--5-5-5-5-5-5-5-5-5-|-5----------------*|
|-0--0-0-0-0-0-0-0-0-0-|-3----------------*|
|-0--0-0-0-0-0-0-0-0-0-|-3----------------*|
|-0--0-0-0-0-0-0-0-0-0-|-3----------------*|
|
|    ~~~~~~~~~~~~~~~~~~~~~~~~~~~
|----------------------|------------------*|
|----------------------|------------------*|
|----5-----------------|-4--(4)----(4)b5--*|
|----------------------|------------------*|
|----------------------|------------------*|
|----------------------|------------------*|


Tablature Legend
----------------
 h   - hammer-on
 p   - pull-off
 b   - bend
 pb  - pre-bend
 r   - bend release (if no number after the r, then release immediately)
 /\  - slide into or out of (from/to "nowhere")
 s   - legato slide
 S   - shift slide
<n>  - natural harmonic
[n]  - artificial harmonic
n(n) - tapped harmonic
 ~   - vibrato
 tr  - trill
 T   - tap
 TP  - trem. picking
 PM  - palm muting
\n/  - tremolo bar dip; n = amount to dip
 \n  - tremolo bar down
 n/  - tremolo bar up
/n\  - tremolo bar inverted dip
 =   - hold bend; also acts as connecting device for hammers/pulls
 <>  - volume swell (louder/softer)
 x   - on rhythm slash represents muted slash
 o   - on rhythm slash represents single note slash

Misc Legend
-----------
 |  - bar
||  - double bar
||o - repeat start
o|| - repeat end
*|  - double bar (ending)
 :  - bar (freetime)
 $  - Segno
 &  - Coda
Tempo markers - <E/E./Q/Q./H/H.> = BPM(8/16=s8/s16), where s8 = swing 8ths, s16 = swing 16ths


***************************************************************************************
***************************************************************************************


---------------------------------------------
---------------------------------------------
            
Submit corrections


        Pure lessons Hard to play? Try these video lessons and learn fast Pure lessons
        
↑ Back to top | Tablatures and chords for acoustic guitar and electric guitar, ukulele, drums are parodies/interpretations of the original songs. You may use it for private study, scholarship, research or language learning purposes only