» » »

Butterfly Effect - Consequence Tabs

Artists:  A B C D E F G H I J K L M N O P Q R S T U V W X Y Z # 

Consequence Tabs

(ver. 1) Click to play this song!
Butterfly Effect
 Rating:
4.3/5 (6 votes)

 Consequence lessons Tabs too difficult? Try these video lessons and learn fast
 
                It's 2:40 am and i'm really tired, so if you find any
errors in this tab, please understand why they might
be there.  This is a rather rougher tab then my usual
ones, but it's simply to help you play.  You should be
able to figure it out, but if you do need help regardless
fans out there.  Cya all at BDO 2004!


INTRO:
------

D|----------------|
A|----------------|
F|------------4~--| PLAY
C|--0h2-----------|  x3
G|--0h2-----------|
C|--0h2-----------|

D|---------------------------------|
A|---------------------------------|
F|---------------------------------|
C|--0---------2---0--------0h2-----|
G|--0----------------------0h2-----|
C|--0----------------------0h2-----|



VERSE:
------

D|----------------|
A|----------------|
F|------------4~--| PLAY
C|--0h2-----------|  x4
G|--0h2-----------|
C|--0h2-----------|

D|-------------------|
A|-------------------|
F|-------------------|
C|--0---------2---0--|
G|--0----------------|
C|--0----------------|

D|-------------------------------------|
A|-------------------------------------|
F|---------------------------------4~--| PLAY
C|-------------------------------------|  x6
G|-------------------------------------|
C|--0h2-2-2-0h2-2-2-0h2-2-2-0h2-2------|

D|-------------------|
A|-------------------|
F|-------------------|
C|--0---------2---0--|
G|--0----------------|
C|--0----------------|

D|-------------------------------------|
A|--------**PALM MUTED**---------------|
F|---------------------------------4~--| PLAY
C|--0h2-2-2-0h2-2-2-0h2-2-2-0h2-2------|  x3
G|--0h2-2-2-0h2-2-2-0h2-2-2-0h2-2------|
C|--0h2-2-2-0h2-2-2-0h2-2-2-0h2-2------|

D|-------------------------------------|
A|--------**PALM MUTED**---------------|
F|-------------------------------------| 
C|--0h2-2-2-0h2-2-2-0h2-2-2-0h2-2------|
G|--0h2-2-2-0h2-2-2-0h2-2-2-0h2-2------|
C|--0h2-2-2-0h2-2-2-0h2-2-2-0h2-2------|



PRE-CHORUS:
-----------

D|-------------------------------------|
A|-------------------------------------|
F|---------------------------------4~--| PLAY
C|--0h2-2-2-0h2-2-2-0h2-2-2-0h2-2------|  x3
G|--0h2-2-2-0h2-2-2-0h2-2-2-0h2-2------|
C|--0h2-2-2-0h2-2-2-0h2-2-2-0h2-2------|

D|-------------------------------------|
A|-------------------------------------|
F|-------------------------------------|
C|--0h2-2-2-0h2-2-2-0h2-2-2---5--3-----|
G|--0h2-2-2-0h2-2-2-0h2-2-2---------5--|
C|--0h2-2-2-0h2-2-2-0h2-2-2------------|



CHORUS:
-------

D|------------------------------------|
A|----------8---------------6---------|
F|----------7---------------5---------| PLAY
C|--5-------5-------3-------3--5-3----|  x4
G|--5-------5-------3-------3------5--|
C|--5-------5-------3-------3---------|



POST-CHORUS:
------------

D|----------------|
A|----------------|
F|------------4~--| PLAY
C|--0h2-----------|  x2
G|--0h2-----------|
C|--0h2-----------|



VERSE:
------

Guiar goes out, but continues with the vibrato B on the G string (4th fret).

D|-------------------------------------|
A|--------**PALM MUTED**---------------|
F|---------------------------------4~--|
C|--0h2-2-2-0h2-2-2-0h2-2-2-0h2-2------|
G|--0h2-2-2-0h2-2-2-0h2-2-2-0h2-2------|
C|--0h2-2-2-0h2-2-2-0h2-2-2-0h2-2------|

D|-------------------------------------|
A|--------**PALM MUTED**---------------|
F|-------------------------------------| 
C|--0h2-2-2-0h2-2-2-0h2-2-2-0h2-2------|
G|--0h2-2-2-0h2-2-2-0h2-2-2-0h2-2------|
C|--0h2-2-2-0h2-2-2-0h2-2-2-0h2-2------|


PRE-CHORUS: See above.
----------


CHORUS: See above.
------


BRIDGE:
-------

D|---------------------------------|
A|---------------------------------|
F|------7s9-9-9-9-9s7-7-7--14-14---|
C|------x-x-x-x-x-x-x-x-x---x--x---|
G|------5s7-7-7-7-7s5-5-5--12-12---|
C|--0-0----------------------------|

D|---------------------------------|
A|---------------------------------|
F|------5-5s7-7-7-----5-5-7-7-7-7--|
C|--0h3-x-x-x-x-x-0h5-x-x-x-x-x-x--|
G|--0h3-3-3s5-5-5-0h5-3-3s5-5-5-5--|
C|--0h3-----------0h5--------------|

D|---------------------------------|
A|---------------------------------|
F|------7s9-9-9-9-9s7-7-7--14--12--|
C|------x-x-x-x-x-x-x-x-x---x---x--|
G|------5s7-7-7-7-7s5-5-5--12--10--|
C|--0-0----------------------------|

D|---------------------------------|
A|---------------------------------|
F|------5-5s7-7-7-----5-5-7-7-7-7--|
C|--0h3-x-x-x-x-x-0h5-x-x-x-x-x-x--|
G|--0h3-3-3s5-5-5-0h5-3-3s5-5-5-5--|
C|--0h3-----------0h5--------------|

D|---------------------------------|
A|---------------------------------|
F|------7s9-9-9-9-9s7-7-7--14-14---|
C|------x-x-x-x-x-x-x-x-x---x--x---|
G|------5s7-7-7-7-7s5-5-5--12-12---|
C|--0-0----------------------------|

D|---------------------------------|
A|---------------------------------|
F|------5-5s7-7-7-----5-5-7-7-7-7--|
C|--0h3-x-x-x-x-x-0h5-x-x-x-x-x-x--|
G|--0h3-3-3s5-5-5-0h5-3-3s5-5-5-5--|
C|--0h3-----------0h5--------------|

D|---------------------------------|
A|---------------------------------|
F|------7s9-9-9-9-9s7-7-7--14--12--|
C|------x-x-x-x-x-x-x-x-x---x---x--|
G|------5s7-7-7-7-7s5-5-5--12--10--|
C|--0-0----------------------------|

D|-----------------------------------------|
A|----6-6-6-6-6-6-8-8-8-8-8-8-8-8-8-8-8-8--|
F|----5-5-5-5-5-5s7-7-7-7-7-7-7-7-7-7-7-7--|
C|--0h3-3-3-3-3-3s5-5-5-5-5-5-5-5-5-5-5-5--|
G|--0h3-3-3-3-3-3s5-5-5-5-5-5-5-5-5-5-5-5--|
C|--0h3-3-3-3-3-3s5-5-5-5-5-5-5-5-5-5-5-5--|



OUTRO:
------

D|-----------|
A|-----------|
F|-----------| PLAY
C|--2p0-0h2--|  x7
G|--2p0-0h2--|
C|--2p0-0h2--|

D|----------------------|
A|----------*PALM*------|
F|----------*MUTE*------|
C|--2p0-0h2--0--0--0h2--|
G|--2p0-0h2--0--0--0h2--|
C|--2p0-0h2--0--0--0h2--|

D|-----------|
A|-----------|
F|-----------| PLAY
C|--2p0-0h2--|  x8
G|--2p0-0h2--|
C|--2p0-0h2--|

D|-------------|
A|-------------|
F|-------------|
C|--2p0-0-2-2--|
G|--2p0-0-2-2--|
C|--2p0-0-2-2--|



---------------------------------------------
---------------------------------------------
            
Submit corrections


        Consequence lessons Hard to play? Try these video lessons and learn fast Consequence lessons
        
↑ Back to top | Tablatures and chords for acoustic guitar and electric guitar, ukulele, drums are parodies/interpretations of the original songs. You may use it for private study, scholarship, research or language learning purposes only