» » »

Butterfly Effect - Black Lung Tabs

Artists:  A B C D E F G H I J K L M N O P Q R S T U V W X Y Z # 

Black Lung Tabs

(ver. 1) Click to play this song!
Butterfly Effect
 Rating:
4/5 (4 votes)

 Black Lung lessons Tabs too difficult? Try these video lessons and learn fast
 
                DROP C TUNING

riff 1

A--------------------------------------------------
F------7-7-----7-7-7-----7-7----7--7---------------
C---7--7-7--7--7-7-7--7--7-7--7-7--7--7-7---0--2---
G---5--5-5--5--5-5-5--5--5-5--5-5--5--5-5---0--2---
C---5--5-5--5--5-5-5--5--5-5--5-5--5--5-5---0--2---

A-----------------
F--------------4--(x 4)
C---0--0-0--0--4--
G---0--0-0--0--2--
C---0--0-0--0-----

riff 2

A-------------------------------------------------------
F------6/7------10--10--10-10-----6/7-------------------
C---0--------7-----------------0--------7--5---5--5-5---
G---0--4/5---7---8---8---8--8--0--4/5---7--5---5--5-5---
C---0--------7-----------------0--------7--5---5--5-5---

fill

A--------------------------------
F---8-------8---8-8--8-8--8--8---
C-------------------------------- w/pitch effect
G---6-------6---6-6--6-6--6--6---
C--------------------------------

riff 3

A-------------------------------------
F---7/8-8-8-8\7-7-7-7/8-8-8-8\7-7-7---
C-------------------------------------
G---5/6-6-6-6\5-5-5-5/6-6-6-6\5-5-5---
C-------------------------------------

riff 4

F----------------------------------------
C---0-1---5-4-4-0-1---7-7-7-7-7--13-12---
G---0-1---5-4-4-0-1---7-7-7-7-7--13-12---
C---0-1---5-4-4-0-1---7-7-7-7-7--13-12---
            
Submit corrections


        Black Lung lessons Hard to play? Try these video lessons and learn fast Black Lung lessons
        
↑ Back to top | Tablatures and chords for acoustic guitar and electric guitar, ukulele, drums are parodies/interpretations of the original songs. You may use it for private study, scholarship, research or language learning purposes only