» » »

Butterfly Effect - Beautiful Mine Tabs

Artists:  A B C D E F G H I J K L M N O P Q R S T U V W X Y Z # 

Beautiful Mine Tabs

(ver. 1) Click to play this song!
Butterfly Effect
 Rating:
4/5 (4 votes)

 Beautiful Mine lessons Tabs too difficult? Try these video lessons and learn fast
 
                This is the first of hopefully a set of tabs that i do from
the new butterfly effect cd "begins here".  I'm sorry that
this tab is incomplete, but i cant be bothered trying to tab
just the chorus.  Thanks.  I hope this tab helps you butterfly
wrong, because i'm hung over and i don't care lol.  You should
help or whatever else you need to talk about.  Enjoy!



INTRO/VERSE RIFF: Repeat as necessary.
-----------------

D|-----------------------------------------------------|
A|----------------------------------------6----6-5-----|
F|--7---7-7----7---7s10----10---10-10------------------| PLAY
C|--------------------------8----8--8-----5----5-5-----|  x2
G|--5---5-5----5---5s-8-----8----8--8-----5----5-5-----|
C|--0---0-0----0---0--0-----8----8--8-----5----5-5-----|

D|-----------------------------------------------------|
A|----------------------------------------6----6-5-----|
F|--7---7-7----7s9-9s10----10---10-10------------------| PLAY
C|--------------------------8----8--8-----5----5-5-----|  x2
G|--5---5-5----5s7-7s-8-----8----8--8-----5----5-5-----|
C|--0---0-0----0-0-0--0-----8----8--8-----5----5-5-----|



PRE-CHORUS:
-----------

D|-----------------------------------------------------|
A|-----------------------------------------------------|
F|-----------7s10-----------7s10-----7--7--7--7--7--7--| PLAY
C|--3p0-0-0--------3p0-0-0---------0h5--5--5--5--5--5--|  x2
G|--3p0-0-0--5s-8--3p0-0-0--5s-8---0h5--5--5--5--5--5--|
C|--3p0-0-0--0--0--3p0-0-0--0--0---0h5--5--5--5--5--5--|



CHORUS RIFF:
------------

D|----------------------------------------------------|
A|----------------------------------------------------|
F|--7-7-7-7---7-7-7--5-5-5----8-8-8-8---8-8-8--5-5-5--|
C|--x-x-x-x---x-x-x--x-x-x----x-x-x-x---x-x-x--x-x-x--|
G|--5-5-5-5---5-5-5--3-3-3----6-6-6-6---6-6-6--3-3-3--|
C|--0-0-0-0---0-0-0--0-0-0----0-0-0-0---0-0-0--0-0-0--|

D|----------------------------------------------------|
A|----------------------------------------------------|
F|----------------------------------------------------|
C|--0-0-0-0---0-1-1-1---------0-0-0-0---0-1-1-1-------|
G|--0-0-0-0---0-1-1-1---------0-0-0-0---0-1-1-1-------|
C|--0-0-0-0---0-1-1-1---------0-0-0-0---0-1-1-1-------|


BRIDGE:
-------

D|-----------------------------------------------------------|
A|-----------------------------------------------------------|
F|----10-10-10-10----12-12-12-12----10-10-10-10--9--9--7--7--| PLAY
C|-----------------------------------------------------------|  x2
G|-----8--8--8--8----10-10-10-10-----8--8--8--8--7--7--5--5--|
C|--0--------------0--------------0--------------------------|

D|-----------------------------------------|
A|-----------------------------------------|
F|--------7---------7---------7------------| PLAY
C|--5--5--5---5--5--5---5--5--5---5--5--7--|  x2
G|--5--5--5---5--5--5---5--5--5---5--5--5--|
C|--5--5--5---5--5--5---5--5--5---5--5--5--|
    *PM*      *PM*      *PM*      *PM*

D|-----------------------------------------------------------|
A|-----------------------------------------------------------|
F|----10-10-10-10----12-12-12-12----10-10-10-10--9--9--7--7--|
C|-----------------------------------------------------------|
G|-----8--8--8--8----10-10-10-10-----8--8--8--8--7--7--5--5--|
C|--0--------------0--------------0--------------------------|

D|---------------------------------------------|
A|---------------------------------------------|
F|---------------------------------------------|
C|--5--5-s-0---5--5-s-0---5--5-s-0---5--5-s-0--|
G|--5--5-s-0---5--5-s-0---5--5-s-0---5--5-s-0--|
C|--5--5-s-0---5--5-s-0---5--5-s-0---5--5-s-0--|

D|-----------------------------------------------------------|
A|-----------------------------------------------------------|
F|----10-10-10-10----12-12-12-12----10-10-10-10--9--9--7--7--| PLAY
C|-----------------------------------------------------------|  x2
G|-----8--8--8--8----10-10-10-10-----8--8--8--8--7--7--5--5--|
C|--0--------------0--------------0--------------------------|

D|----------------------------------------------|
A|----------------------------------------------|
F|----------------------------------------------| PLAY
C|--0-h-5--5--5--5--5--5--0-h-5--5--5--5--5--5--|  x2
G|--0-h-5--5--5--5--5--5--0-h-5--5--5--5--5--5--|
C|--0-h-5--5--5--5--5--5--0-h-5--5--5--5--5--5--|



---------------------------------------------
---------------------------------------------
            
Submit corrections


        Beautiful Mine lessons Hard to play? Try these video lessons and learn fast Beautiful Mine lessons
        
↑ Back to top | Tablatures and chords for acoustic guitar and electric guitar, ukulele, drums are parodies/interpretations of the original songs. You may use it for private study, scholarship, research or language learning purposes only