» » »

Bush - Machinehead Bass

Artists:  A B C D E F G H I J K L M N O P Q R S T U V W X Y Z # 

Machinehead Bass

(ver. 1) Click to play this song!
Bush
 Rating:
4.3/5 (12 votes)


 Machinehead lessons Tabs too difficult? Try these video lessons and learn fast
 
                [Intro]

G|-----------------|-----------------|-----------------|-----------------|
D|-6---------------|-----------------|-----------------|-----------------|
A|-4---------------|-----------------|-----------------|-----------------|
E|-----------------|-----------------|-5-5-----5-------|-5-5-----5-------|

G|-----------------|-----------------|-----------------|-----------------|
D|-----------------|-----------------|-----------------|-----------------|
A|-4-4-----4-------|-4-4-----4-------|-----------------|-----------------|
E|-----------------|-----------------|-5-5-----5-------|-5-5-----5-------|

G|-----------------|-----------------|-----------------|-----------------|
D|-----------------|-----------------|-----------------|-----------------|
A|-4-4-x-x-4---x-x-|-4-4-x-x-4---x-x-|-----------------|-----------------|
E|-----------------|-----------------|-5-5-x-x-5-5-x-x-|-5-5-x-x-5---5-5-|

G|-----------------|-----------------|-----------------|-----------------|
D|-----------------|-----------------|-----------------|-----------------|
A|-4-4-x-x-4---x-x-|-4-4-x-x-4-4-----|-----------------|-------------0-2-|
E|-----------------|-------------0-2-|-5-5-x-x-5-5-x-x-|-5-5-x-x-5-5-----|

[Verse]

G|-----------------|-----------------|-----------------|-----------------|
D|-----------------|-----------------|-----------------|-----------------|
A|-4-4-x-x-4---x-x-|-4-4-x-x-4-4-----|-----------------|-------------0-2-|
E|-----------------|-------------0-2-|-5-5-x-x-5---x-x-|-5-5-x-x-5-5-----|

G|-----------------|-----------------|-----------------|-----------------|
D|-----------------|-----------------|-----------------|-----------------|
A|-4-4-x-x-4-----x-|-4-4-x-x-4-4-----|-----------------|-------------0-2-|
E|-----------------|-------------0-2-|-5-5-x-x-5---x-x-|-5-5-x-x-5-5-----|

G|-----------------|-----------------|-----------------|-----------------|
D|-----------------|-----------------|-----------------|-----------------|
A|-4-4-x-x-4---x-x-|-4-4-x-x-4-4-----|-----------------|-------------0-2-|
E|-----------------|-------------0-2-|-5-5-x-x-5-5-x-x-|-5-5-x-x-5-5-----|

G|-----------------|-----------------|-----------------|-----------------|
D|-----------------|-----------------|-----------------|-----------------|
A|-4-4-x-x-4---x-x-|-4-4-x-x-4-4-----|-----------------|-------------0-2-|
E|-----------------|-------------0-2-|-5-5-x-x-5-5-x-x-|-5-5-x-x-5-5-----|

G|-----------------|-----------------|-----------------|-----------------|
D|-----------------|-----------------|-----------------|-----------------|
A|-4-4-x-x-4---x-x-|-4-4-x-x-4-4-----|-----------------|-----------------|
E|-----------------|-------------0-2-|-5-5-x-x-5-5-x-x-|-5-5-x-x-5-5-x-5-|

[Chorus]

G|-----------------|-----------------|-----------------|-----------------|
D|-----------------|-----------------|-----------------|-----------------|
A|-7---------------|-----------------|-7---------------|-----------------|
E|---------7-------|-9------5------5-|---------7-------|-9-------5-----5-|

G|-----------------|-----------------|-----------------|-----------------|
D|-----------------|-----------------|-----------------|-----------------|
A|-7---------------|-----------------|-7---------------|-----------------|
E|---------7-----7-|-9----9-5------5-|---------7-------|-9-9-9-9-9-9-9-0-|

G|-----------------|-----------------|-----------------|-----------------|
D|-----------------|-----------------|-7---------------|-----------------|
A|-----------------|-----------------|-----7---7-9-----|-9-----7-9-------|
E|-2-----2-----0---|-2------5----5---|-----------------|-----------------|

G|-----------------|
D|-----------------|
A|-0-0-0-0-0-0-0-0-|
E|-----------------|

[Post Chorus]

G|-----------------|-----------------|-----------------|-----------------|
D|-----------------|-----------------|-----------------|-----------------|
A|-4---x-x-4---x-x-|-4-4-x-x-4-4-----|-----------------|-------------0-2-|
E|-----------------|-------------0-2-|-5---x-x-5---x-x-|-5-5-x-x-5-------|

[Verse]

G|-----------------|-----------------|-----------------|-----------------|
D|-----------------|-----------------|-----------------|-----------------|
A|-4-4-x-x-4---x-x-|-4---x-x-4-------|-----------------|-------------0-2-|
E|-----------------|---------------4-|-5---x-x-5---x-x-|-5-5-x-x-5-------|

G|-----------------|-----------------|-----------------|-----------------|
D|-----------------|-----------------|-----------------|-----------------|
A|-4-4-x-x-4---x-x-|-4-4-x-x-4-4-----|-----------------|-------------0-2-|
E|-----------------|-------------0-2-|-5-5-x-x-5-5-x-x-|-5-5-x-x-5-5-----|

G|-----------------|-----------------|-----------------|-----------------|
D|-----------------|-----------------|-----------------|-----------------|
A|-4-4-x-x-4---x-x-|-4-4-x-x-4-------|-----------------|-----------------|
E|-----------------|-------------0-2-|-5-5-x-x-5-5-x-x-|-5-5-x-x-5-5-5-7-|

[Chorus]

G|-------------------|-------------------|------------------|---------------------|
D|-------------------|-------------------|------------------|---------------------|
A|-7-7-x-x-----------|-------------------|-7-7-x-x----------|---------------------|
E|---------7---7-x-x-|-9-9-x-x-5-5-5-x-5-|--------7---7-x-x-|-9-9-x-x-5---5-5-x-5-|

G|-------------------|-------------------|------------------|---------------------|
D|-------------------|-------------------|------------------|---------------------|
A|-7-7-x-x-----------|-------------------|-7-7-x-x----------|---------------------|
E|---------7---7-x-x-|-9-9-x-x-5-5-5-x-5-|--------7---7-x-x-|-9-9-x-x-5-5-4--5--7-|

G|------------------|-------------------|------------------|-----------------|
D|------------------|-------------------|------------------|-----------------|
A|-7-7-x-x----------|-------------------|-7-7-x-x----------|-----------------|
E|--------7---7-x-x-|-9-9-x-x-5---5-5-7-|--------7---7-x-7-|-9-------------9-|

G|-----------------|----------------|----------------|----------------|
D|-----------------|----------------|-7--------------|----------------|
A|-----------------|----------------|-----7-----7-9--|-----7-9--------|
E|-2-----2-------0-|-2-----5------5-|----------------|----------------|

G|-----------------|
D|-7-7-7-7-7-7-7-7-|
A|-----------------|
E|-----------------|

[Bridge]

G|-------6---------6-|---------6---6-6-|---------------|-----------------|
D|-------------------|-----------------|-7-------------|-----------------|
A|-4-4-x---4---x-4---|---4-x-4---4-----|-0-------------|-----------------|
E|-------------------|-----------------|---------------|-----------------|

G|-6-----6---6-----|---------6---6---|---------------|-----------------|
D|-----------------|-----------------|-7-------------|-----------------|
A|---4-4---4-------|-4-4---4---4---4-|-0-------------|-----------------|
E|-----------------|-----------------|---------------|-5-~-\-~-\-~-x-x-|

[Verse]

G|-----------------|-----------------|-------------------|-------------------|
D|-----------------|-----------------|-------------------|-------5-7---7-7---|
A|-4-4-x-2-4-4-x-x-|-4-4-x-x-4-4-----|-------------------|-----------------0-|
E|-----------------|-------------0-4-|-5-5-0-4-5-5-0-4h5-|---5-x-------------|

[Chorus]

G|-------------------|-------------------|------------------|---------------------|
D|-------------------|-------------------|------------------|---------------------|
A|-7-7-x-x-----------|-------------------|-7-7-x-x----------|---------------------|
E|---------7---7-x-x-|-9-9-x-0-5---4-5-7-|--------7---7-x-x-|-9-9-x-x-5---5---7---|

G|-------------------|-------------------|------------------|---------------------|
D|-------------------|-------------------|------------------|---------------------|
A|-7-7-x-x-----------|-------------------|-7-7-x-x----------|---------------------|
E|---------7---7-x-x-|-9-9-x-0-5---4-5-7-|--------7---7-x-x-|-9-9-x-x-5---5-5-7---|

G|----------------------------|----------------------|--------------------------------|
D|----------------------------|----------------------|--------------------------------|
A|-7-7-7-/-14-14---14-14-14-\-|---------12-12---12-\-|-7-7--7-/-14-14-14-14---14-14-\-|
E|----------------------------|-9-9-9-/--------------|--------------------------------|

G|-----------------------|------------------------|---------------------------|
D|-----------------14----|------------------------|---------------------------|
A|---------12-12------12-|------------------------|---------12-12-12-12-12-12-|
E|-9-9-9-/-------0-------|-12-12-12-x-7---7---7-/-|-9-9---9-------------------|

G|------------------------|-----------------|-----------------|-----------------|
D|------------------------|-----------------|-----------------|-----------------|
A|------------------------|-----------------|-----------------|-----------------|
E|-12-12-12---7-7---7-7-7-|-9-------9-------|-----------------|-----------------|
            
Submit corrections



        Machinehead lessons Hard to play? Try these video lessons and learn fast Machinehead lessons
        
↑ Back to top | Tablatures and chords for acoustic guitar and electric guitar, ukulele, drums are parodies/interpretations of the original songs. You may use it for private study, scholarship, research or language learning purposes only