Home » B » Burzum »

Burzum - Dunkelheit Tabs

Artists:  A B C D E F G H I J K L M N O P Q R S T U V W X Y Z # 

Dunkelheit Tabs

(ver. 2) Click to play this song!
Burzum
 Rating:
4.3/5 (27 votes)
                [riff 1]
 
e|--3-3-2-2--2------------2--3-3-0-0--0------------0----|
B|--3-3-2-2----2----------2--3-3-0-0----0----------0----|
G|--3-3-2-2------2--------2--3-3-0-0------0--------0----|
D|--5-5-4-4--------4------4--5-5-2-2--------2------2----|
A|--5-5-4-4----------4----4--5-5-2-2----------2----2----|
E|--3-3-2-2------------2--2--3-3-0-0------------0--0----|
 
 
[riff 2]
 
e|--3-3-2-2--2------------2--3-3-5-5-5---------------5--|
B|--3-3-2-2----2----------2--3-3-5-5---5-------------5--|
G|--3-3-2-2------2--------2--3-3-5-5------5----------5--|
D|--5-5-4-4--------4------4--5-5-7-7--------7--------7--|
A|--5-5-4-4----------4----4--5-5-7-7-----------7-----7--|
E|--3-3-2-2------------2--2--3-3-5-5--------------5--5--|
 
e|-3-3-2-2--2------------2--3-3-0-0--0------------0----|
B|-3-3-2-2----2----------2--3-3-0-0----0----------0----|
G|-3-3-2-2------2--------2--3-3-0-0------0--------0----|
D|-5-5-4-4--------4------4--5-5-2-2--------2------2----|
A|-5-5-4-4----------4----4--5-5-2-2----------2----2----|
E|-3-3-2-2------------2--2--3-3-0-0------------0--0----|
 
 
[suddenly...]
Play This Before Starting ON The Third Riff
And In The End
e|---2---------1--------0--------------|
B|---2---------1--------0--------------|
G|---2---------1--------0--------------|
D|---4---------3--------2--------------|
A|---4---------3--------2--------------|
E|---2---------1--------0--------------|
 
[riff 3]
 
e|--0-0------------0--3-3-2-2-2-------------|
B|--0---0----------0--3-3-2-2---2-----------|
G|--0-----0--------0--3-3-2-2-----2---------|
D|--2-------2------2--5-5-4-4-------4-------|
A|--2---------2----2--5-5-4-4---------4-----|
E|--0-----------0--0--3-3-2-2-----------2---|
 
e|-2--3-3-0-0--0-------0--3-3-2-5-5------5-8--------|
B|-2--3-3-0-0---0------0--3-3-2-5--5-----5--8-------|
G|-2--3-3-0-0----0-----0--3-3-2-5---5----5---8------|
D|-4--5-5-2-2-----2----2--5-5-4-7----7---7----10----|
A|-4--5-5-2-2-------2--2--5-5-4-7-----7--7------10--|
E|-2--3-3-0-0--------0-0--3-3-2-5------5-5--------8-|
 
e|-8--9--------------------------------|
B|-8--9--------------------------------|
G|-8--9--------------------------------|
D|-10-7--------------------------------|
A|-10-7--------------------------------|
E|-8--9--------------------------------|
            
Submit corrections

↑ Back to top | Tablatures and chords for acoustic guitar and electric guitar, ukulele, drums are parodies/interpretations of the original songs. You may use it for private study, scholarship, research or language learning purposes only