» » »

Bury Tomorrow - Man On Fire Bass

Artists:  A B C D E F G H I J K L M N O P Q R S T U V W X Y Z # 

Man On Fire Bass

(ver. 1) Click to play this song!
Bury Tomorrow
 Rating:
4.3/5 (22 votes)

 Man On Fire lessons Tabs too difficult? Try these video lessons and learn fast
 
                [Intro]

Rest 16 Bars

E |----------|
B |----------|
F#|----------| (hold 9 bars)
B |-0--------|

Intro Verse

E |-----------------------------------------------------------------|
B |-----------------------------------------------------------------|
F#|---5-5-5-5---------5-5-5-5---------3-3-3-3---------1-1-1-1-------|
B |-0---------0-000-0---------0-000-0---------0-000-0---------0-0-3-|
    1 + 2 + 3 + 4 + 1 + 2 + 3 + 4 + 1 + 2 + 3 + 4 + 1 + 2 + 3 + 4 + 

E |-----------------------------------------------------------------|
B |-----------------------------------------------------------------|
F#|---5-5-5-5---------5-5-5-5---------3-3-3-3---------1-1-1-1-----1-|
B |-0---------0-00-00---------0-00-00---------0-00-00---------0-3---|
    1 + 2 + 3 + 4 + 1 + 2 + 3 + 4 + 1 + 2 + 3 + 4 + 1 + 2 + 3 + 4 + 

E |-----------------------------------------------------------------|
B |-----------------------------------------------------------------|
F#|---5-5-5-5---------5-5-5-5---------3-3-3-3---------1-1-1-1-------|
B |-0---------0-000-0---------0-000-0---------0-000-0---------0-0-3-|
    1 + 2 + 3 + 4 + 1 + 2 + 3 + 4 + 1 + 2 + 3 + 4 + 1 + 2 + 3 + 4 + 

E |-----------------------------------------------------------------|
B |-----------------------------------------------------------------|
F#|---5-5-5-5---------5-5-5-5---------3-3-3-3---------1-1-1-1-----1-|
B |-0---------0-00-00---------0-00-00---------0-00-00---------000---|
    1 + 2 + 3 + 4 + 1 + 2 + 3 + 4 + 1 + 2 + 3 + 4 + 1 + 2 + 3 + 4 + 

[Verse]

E |-----------------------------------------------------------------|
B |-----------------------------------------------------------------|
F#|-----------------------------------------------------------------|
B |-0-0-0-0-0-0-0-0-0-0-0-0-0-0-----0-0-----0-0---------0-0-----0-0-|
    1 e + a 2 e + a 3 e + a 4 e + a 1 e + a 2 e + a 3 e + a 4 e + a

E |-----------------------------------------------------------------|
B |-----------------------------------------------------------------|
F#|-----------------------------------------------------------------|
B |-0-0-0-0-0-0-0-0-0-0-0-0-0-0-----------------3-------6-------6---|
    1 e + a 2 e + a 3 e + a 4 e + a 1 e + a 2 e + a 3 e + a 4 e + a

E |-----------------------------------------------------------------|
B |-----------------------------------------------------------------|
F#|-----------------------------------------------------------------|
B |-0-0-0-0-0-0-0-0-0-0-0-0-0-0-----0-0-----0-0---------0-0-----0-0-|
    1 e + a 2 e + a 3 e + a 4 e + a 1 e + a 2 e + a 3 e + a 4 e + a

E |-----------------------------------------------------------------|
B |-----------------------------------------------------------------|
F#|-----------------------------------------------------------------|
B |-0-0-0-0-0-0-0-0-0-0-0-0-0-0-----------------3-------8-------8---|
    1 e + a 2 e + a 3 e + a 4 e + a 1 e + a 2 e + a 3 e + a 4 e + a


E |-----------------------------------------------------------------|
B |-----------------------------------------------------------------|
F#|-----------------------------------------------------------------|
B |-0---0-0-0---0-0-0-0-0---0-0---------0-0-0-0---------0-0-0-0-----|
    1 e + a 2 e + a 3 e + a 4 e + a 1 e + a 2 e + a 3 e + a 4 e + a

E |-----------------------------------------------------------------|
B |-----------------------------------------------------------------|
F#|-----------------------------------------------------------------|
B |-0---0-0-0---0-0-0-0-0---0-0-0-0-5-----5-----5---5-5-1-1-1-1-----|
    1 e + a 2 e + a 3 e + a 4 e + a 1 e + a 2 e + a 3 e + a 4 e + a

E |-----------------------------------------------------------------|
B |-----------------------------------------------------------------|
F#|-----------------------------------------------------------------|
B |-0---0-0-0---0-0-0-0-0---0-0---------0-0-0-0---------0-0-0-0-----|
    1 e + a 2 e + a 3 e + a 4 e + a 1 e + a 2 e + a 3 e + a 4 e + a

E |-----------------------------------------------------------------|
B |-----------------------------------------------------------------|
F#|-----------------------------------------------------------------|
B |-0---0-0-0---0-0-0-0-0---0-0-0-0-3-----3-----3---3-3-7-7-7-7-----|
    1 e + a 2 e + a 3 e + a 4 e + a 1 e + a 2 e + a 3 e + a 4 e + a

[Pre-Chorus]

E |-----------------------------------------------------------------|
B |-----------------------------------------------------------------|
F#|-----------------------------------------------------------------|
B |-8-----8-----8-r---------7-----7-----7-r---------3---3---r-------|
    1 e + a 2 e + a 3 e + a 4 e + a 1 e + a 2 e + a 3 e + a 4 e + a

[Chorus]

E |-----------------------------------------------------------------|
B |-----------------------------------------------------------------|
F#|-----------------------------------------------------------------|
B |-1-1-1-1-1-1-1-----1-1-1-1-3-3-----5-5-5-5-5-5-----5-5-5-5-0-0-0-|
    1 + 2 + 3 + 4 + 1 + 2 + 3 + 4 + 1 + 2 + 3 + 4 + 1 + 2 + 3 + 4 +

E |-----------------------------------------------------------------|
B |-----------------------------------------------------------------|
F#|---------------------------------------------------1-1-1-1-3-3-3-|
B |---1-1-1-1-1-1-----1-1-1-1-3-3-----5-5-5-5-5-5-------------------|
    1 + 2 + 3 + 4 + 1 + 2 + 3 + 4 + 1 + 2 + 3 + 4 + 1 + 2 + 3 + 4 +

E |-----------------------------------------------------------------|
B |-----------------------------------------------------------------|
F#|-----------------------------------------------------------------|
B |---1-1-1-1-1-1-----1-1-1-1-3-3-----5-5-5-5-5-5-----5-5-5-5-0-0-0-|
    1 + 2 + 3 + 4 + 1 + 2 + 3 + 4 + 1 + 2 + 3 + 4 + 1 + 2 + 3 + 4 +

E |-----------------------------------------------------------------|
B |-----------------------------------------------------------------|
F#|-----------------------------------------------------------------|
B |---1-1-1-1-1-1-1-1111111-3-8-7-5-----5-5-5-5-5-5-5-5-5-5-5-8-8-8-|
    1 + 2 + 3 + 4 + 1 + 2 + 3 + 4 + 1 + 2 + 3 + 4 + 1 + 2 + 3 + 4 +

[Verse]

E |------------------------------------------------------------------|
B |o-----------------------------------------------------------------|
F#|o-----------------------------------------------------------------|
B |--0-0-0-0-0-0-0-0-0-0-0-0-0-0-----0-0-----0-0---------0-0-----0-0-|
     1 e + a 2 e + a 3 e + a 4 e + a 1 e + a 2 e + a 3 e + a 4 e + a

E |-----------------------------------------------------------------|
B |-----------------------------------------------------------------|
F#|-----------------------------------------------------------------|
B |-0-0-0-0-0-0-0-0-0-0-0-0-0-0-----------------3-------6-------6---|
    1 e + a 2 e + a 3 e + a 4 e + a 1 e + a 2 e + a 3 e + a 4 e + a

E |-----------------------------------------------------------------|
B |-----------------------------------------------------------------|
F#|-----------------------------------------------------------------|
B |-0-0-0-0-0-0-0-0-0-0-0-0-0-0-----0-0-----0-0---------0-0-----0-0-|
    1 e + a 2 e + a 3 e + a 4 e + a 1 e + a 2 e + a 3 e + a 4 e + a

E |------------------------------------------------------------------|
B |-----------------------------------------------------------------o|
F#|-----------------------------------------------------------------o|
B |-0-0-0-0-0-0-0-0-0-0-0-0-0-0-----------------3-------8-------8----|
    1 e + a 2 e + a 3 e + a 4 e + a 1 e + a 2 e + a 3 e + a 4 e + a

[Pre-Chorus]

E |-----------------------------------------------------------------|
B |-----------------------------------------------------------------|
F#|-----------------------------------------------------------------|
B |-8-----8-----8-r---------7-----7-----7-r---------3---3---r-------|
    1 e + a 2 e + a 3 e + a 4 e + a 1 e + a 2 e + a 3 e + a 4 e + a

[Chorus]

E |-----------------------------------------------------------------|
B |-----------------------------------------------------------------|
F#|-----------------------------------------------------------------|
B |-1-1-1-1-1-1-1-----1-1-1-1-3-3-----5-5-5-5-5-5-----5-5-5-5-0-0-0-|
    1 + 2 + 3 + 4 + 1 + 2 + 3 + 4 + 1 + 2 + 3 + 4 + 1 + 2 + 3 + 4 +

E |-----------------------------------------------------------------|
B |-----------------------------------------------------------------|
F#|---------------------------------------------------1-1-1-1-3-3-3-|
B |---1-1-1-1-1-1-----1-1-1-1-3-3-----5-5-5-5-5-5-------------------|
    1 + 2 + 3 + 4 + 1 + 2 + 3 + 4 + 1 + 2 + 3 + 4 + 1 + 2 + 3 + 4 +

E |-----------------------------------------------------------------|
B |-----------------------------------------------------------------|
F#|-----------------------------------------------------------------|
B |---1-1-1-1-1-1-----1-1-1-1-3-3-----5-5-5-5-5-5-----5-5-5-5-0-0-0-|
    1 + 2 + 3 + 4 + 1 + 2 + 3 + 4 + 1 + 2 + 3 + 4 + 1 + 2 + 3 + 4 +

E |-----------------------------------------------------------------|
B |-----------------------------------------------------------------|
F#|-----------------------------------------------------------------|
B |---1-1-1-1-1-1-1-1111111-3-8-7-5-----5-5-5-5-5-5-5-5-5-5-5-8---8-|
    1 + 2 + 3 + 4 + 1 + 2 + 3 + 4 + 1 + 2 + 3 + 4 + 1 + 2 + 3 + 4 +

[Interlude]

E |-----------------------------------------------------------------|
B |-----------------------------------------------------------------|
F#|-----------------------------------------------------------------|
B |-1-------0-------0-0-0-0---0-0-r---------------------------------|
    1 e + a 2 e + a 3 e + a 4 e + a 1 e + a 2 e + a 3 e + a 4 e + a

E |-----------------------------------------------------------------|
B |-----------------------------------------------------------------|
F#|-----------------------------------------------------------------|
B |---------3-------3-3-3-3---3-3-r---------------------------------|
    1 e + a 2 e + a 3 e + a 4 e + a 1 e + a 2 e + a 3 e + a 4 e + a

E |-----------------------------------------------------------------|
B |-----------------------------------------------------------------|
F#|-----------------------------------------------------------------|
B |---------5-------5-5-5-5---5-5-r---------------------------------|
    1 e + a 2 e + a 3 e + a 4 e + a 1 e + a 2 e + a 3 e + a 4 e + a

E |-----------------------------------------------------------------|
B |-----------------------------------------------------------------|
F#|-----------------------------------------------------------------|
B |---------8-------8-8-8-8---8-8-r---------------------------------|
    1 e + a 2 e + a 3 e + a 4 e + a 1 e + a 2 e + a 3 e + a 4 e + a

E |------------------------------------------------------------------|
B |------------------------------------------------------------------|
F#|------------------------------------------------------------------|
B |-12-----\-0-------0-0-0-0---0-0-r---------------------------------|
    1  e + a 2 e + a 3 e + a 4 e + a 1 e + a 2 e + a 3 e + a 4 e + a

E |-----------------------------------------------------------------|
B |-----------------------------------------------------------------|
F#|-----------------------------------------------------------------|
B |---------3-------3-3-3-3---3-3-r---------------------------------|
    1 e + a 2 e + a 3 e + a 4 e + a 1 e + a 2 e + a 3 e + a 4 e + a

E |-----------------------------------------------------------------|
B |-----------------------------------------------------------------|
F#|-----------------------------------------------------------------|
B |---------5-------5-5-5-5---5-5-r---------------------------------|
    1 e + a 2 e + a 3 e + a 4 e + a 1 e + a 2 e + a 3 e + a 4 e + a

E |-----------------------------------------------------------------|
B |-----------------------------------------------------------------|
F#|-----------------------------------------------------------------|
B |---------8-------8-8-8-8---8-8-r---------------------8-8-8-8-8-8-|
    1 e + a 2 e + a 3 e + a 4 e + a 1 e + a 2 e + a 3 e + a 4 e + a

Outro Verse

E |-----------------------------------------------------------------|
B |-----------------------------------------------------------------|
F#|---5-5-5-5---------5-5-5-5---------3-3-3-3---------1-1-1-1-------|
B |-0---------0-000-0---------0-000-0---------0-000-0---------0-0-3-|
    1 + 2 + 3 + 4 + 1 + 2 + 3 + 4 + 1 + 2 + 3 + 4 + 1 + 2 + 3 + 4 + 

E |-----------------------------------------------------------------|
B |-----------------------------------------------------------------|
F#|---5-5-5-5---------5-5-5-5---------3-3-3-3---------1-1-1-1-----1-|
B |-0---------0-00-00---------0-00-00---------0-00-00---------0-3---|
    1 + 2 + 3 + 4 + 1 + 2 + 3 + 4 + 1 + 2 + 3 + 4 + 1 + 2 + 3 + 4 + 

E |-----------------------------------------------------------------|
B |-----------------------------------------------------------------|
F#|---5-5-5-5---------5-5-5-5---------3-3-3-3---------1-1-1-1-------|
B |-0---------0-000-0---------0-000-0---------0-000-0---------0-0-3-|
    1 + 2 + 3 + 4 + 1 + 2 + 3 + 4 + 1 + 2 + 3 + 4 + 1 + 2 + 3 + 4 + 

E |-----------------------------------------------------------------|------|
B |-----------------------------------------------------------------|------|
F#|---5-5-5-5---------5-5-5-5---------3-3-3-3---------1-1-1-1-----1-|------|
B |-0---------0-00-00---------0-00-00---------0-00-00---------000---|-0----|
    1 + 2 + 3 + 4 + 1 + 2 + 3 + 4 + 1 + 2 + 3 + 4 + 1 + 2 + 3 + 4 + 

            
Submit corrections


        Man On Fire lessons Hard to play? Try these video lessons and learn fast Man On Fire lessons
        
↑ Back to top | Tablatures and chords for acoustic guitar and electric guitar, ukulele, drums are parodies/interpretations of the original songs. You may use it for private study, scholarship, research or language learning purposes only