Home » B » Burl Ives »

Burl Ives - Rudolph The Red-Nosed Reindeer Tabs

Artists:  A B C D E F G H I J K L M N O P Q R S T U V W X Y Z # 

Rudolph The Red-Nosed Reindeer Tabs

(ver. 1) Click to play this song!
Burl Ives
 Rating:
4.2/5 (30 votes)
                [Verse 1] 

e|---------------------------------------------------|
B|-----0-1-----0---------------1-----0---------------|
G|---2-----2-----0---2-----2-0---2-----0---2-----2-0-|
D|-----------3-----2---3-0---------3-----2---3-0-----|
A|---------------------------------------------------|
E|---------------------------------------------------|

e|---------------------------------------------------|
B|-------------0-1-1-1-0-----------------------------|
G|---------2-2-----------2-0-------------------------|
D|-2-2-2-2-------------------------------------------|
A|---------------------------------------------------|
E|---------------------------------------------------|

[Chorus]

e|---------------------------------------------------|
B|-----------1---------------1-0---------0-----------|
G|---0-2-0-----2-0-0-2-0-2-0-------0-------2-0-0-2-0-|
D|---------2---------------------3---3-0-------------|
A|---------------------------------------------------|
E|---------------------------------------------------|

e|---------------------------------------------------|
B|-----------------1---------------1-0---------0-----|
G|-2-0-2---0-2-0-----2-0-0-2-0-2-0-------0-------2-0-|
D|-------2-------2---------------------3---3-0-------|
A|---------------------------------------------------|
E|---------------------------------------------------|

e|---------------------------------------------------|
B|-----------3-1-----1---------------------------0-0-|
G|-0-2-0-2-0-----2-2---2-0---0---2-0---------0-2-----|
D|-------------------------2---3-----3-2-0-2---------|
A|---------------------------------------------------|
E|---------------------------------------------------|

e|---------------------------------------------------|
B|-0-1-1-0-----------------1---------------1-0-------|
G|---------2-0-----0-2-0-----2-0-0-2-0-2-0-------0---|
D|-------------3-0-------2---------------------3---3-|
A|---------------------------------------------------|
E|---------------------------------------------------|

e|---------------------------------------------------|
B|---0---------------3-1-----------------------------|
G|-----2-0-0-2-0-2-0---------------------------------|
D|-0-------------------------------------------------|
A|---------------------------------------------------|
E|---------------------------------------------------|

[Chorus]

e|---------------------------------------------------|
B|-----------1---------------1-0---------0-----------|
G|---0-2-0-----2-0-0-2-0-2-0-------0-------2-0-0-2-0-|
D|---------2---------------------3---3-0-------------|
A|---------------------------------------------------|
E|---------------------------------------------------|

e|---------------------------------------------------|
B|-----------------1---------------1-0---------0-----|
G|-2-0-2---0-2-0-----2-0-0-2-0-2-0-------0-------2-0-|
D|-------2-------2---------------------3---3-0-------|
A|---------------------------------------------------|
E|---------------------------------------------------|

e|---------------------------------------------------|
B|-----------3-1-----1---------------------------0-0-|
G|-0-2-0-2-0-----2-2---2-0---0---2-0---------0-2-----|
D|-------------------------2---3-----3-2-0-2---------|
A|---------------------------------------------------|
E|---------------------------------------------------|

e|---------------------------------------------------|
B|-0-1-1-0-----------------1---------------1-0-------|
G|---------2-0-----0-2-0-----2-0-0-2-0-2-0-------0---|
D|-------------3-0-------2---------------------3---3-|
A|---------------------------------------------------|
E|---------------------------------------------------|

e|---------------------------------------------------|
B|---0---------------3-1-----------------------------|
G|-----2-0-0-2-0-2-0---------------------------------|
D|-0-------------------------------------------------|
A|---------------------------------------------------|
E|---------------------------------------------------|
            
Submit corrections

↑ Back to top | Tablatures and chords for acoustic guitar and electric guitar, ukulele, drums are parodies/interpretations of the original songs. You may use it for private study, scholarship, research or language learning purposes only