Home » B » Burden Of A Day »

Burden Of A Day - On The Humanity Tabs

Artists:  A B C D E F G H I J K L M N O P Q R S T U V W X Y Z # 

On The Humanity Tabs

(ver. 1) Click to play this song!
Burden Of A Day
Drop C# Tuning

Git 1 + 2
|------------------------|
|-6----------------------|
|-9----------------------|
|-0----------------------|
|------------------------|
|------------------------|
|                        |
|------------------------|
|------------------------|
|------------------------|
|------------------------|
|-------------------0----|
|-------------------0----|
                    x

Git 1 + 2
|------------------------|
|-6----------------------|
|-9----------------------|
|-0----------------------|
|------------------------|
|------------------------|
|                        |
|------------------------|
|------------------------|
|-10---------------------|
|-x----------------------|
|-8----------------------|
|------------------------|

Git 1 + 2
|-----------------------|------------------------
|----11-----------------|----11------------------
|----x-----(10)---------|----x-----(12)----------
|----8------8-----------|----8------10-----------
|-0------0--8-----------|-0------0--10-----------
|-0------0--8-----------|-0------0--10-----------
|                       |
|-----------------------|------------------------
|-----------------------|------------------------
|----10----(10)---------|----10----(12)----------
|----x------8-----------|----x------10-----------
|-0--8---0--8-----------|-0--8---0--10-----------|
|-0------0--8-----------|-0------0--10-----------|

Git 1 + 2
|------------------------|--------------|
|------------------------|--------------|
|------------------------|--------------|
|-8--12--10--------------|-8--12--10----|
|-8--12--10--------------|-8--12--10----|
|-8--12--10--------------|-8--12--10----|
|                        |
|------------------------|------------------|
|-11---------------------|-11---------------|
|-10--14--12-------------|-10---7--10-11-10-|
|-x---x---x--------------|-x----x--x--x--x--|
|-8---12--10-------------|-8----5--8--9--8--|
|------------------------|------------------|

Git 1 + 2
|------------------------|
|------------------------|
|------------------------|
|-8---8-----0---0--------|
|-8---8-----0---0--------|
|-8---8-----0---0--------|
|                        |
|------------------------|
|------------------------|
|-10--9-----10--9--------|
|-8---8-----x---x--------|
|-8---8-----8---8--------|
|-8---8-----0---0--------|

Git 1 + 2
|--strumming-crunchy-----|
|------------------------|
|------------------------|
|-12--10-----------------|
|-8---8------------------|
|-8---8------------------|
|                        |
|------------------------|
|----8-------------------|
|-7-----10---------------|
|-0----------------------|
|------------------------|
|------------------------|

Git 1 + 2
|----------|----------------------|
|----------|----------------------|
|----------|----------------------|
|----------|----------------------|
|-5-3-2-0--|-5-3-2-0--0-0--0-0-0--|
|-5-3-2-0--|-5-3-2-0--0-0--0-0-0--|
|          |              
|----------|--------------|
|----------|--------------|
|----------|-10-9-7-9-----|
|----------|-x--x-x-x-----|
|----------|-8--7-5-7-----|
|----------|--------------|

Git 1 + 2
|-------------|--------------|
|-------------|---------(10)-|
|-7-----------|-7-------(9)--|
|-7--3--8--7--|-7--3--8--7---|
|-5--3--8--7--|-5--3--8--7---|
|----3--8--7--|----3--8--7---|
| x  x  x  x  | x  x  x     
|-------------|-------------|
|-------------|-------------|
|-------------|-7-----------|
|-------------|-x--3--8--7--|
|-------------|-5--3--8--7--|
|-------------|----3--8--7--|


Git 1 + 2
|------------------------|
|------------------------|
|-7----------------------|
|-7--3--8--7-------------|
|-5--3--8--7-------------|
|-0--3--8--7-------------|
|                        |
|------------------------|
|------------------------|
|-10--14--12--9----------|
|-x---x---x---x----------|
|-8---12--10--7----------|
|------------------------|

Git 1 + 2
|------------------------|
|-6----------------------|
|-9----------------------|
|-0----------------------|
|------------------------|
|------------------------|
|                        |
|------------------------|
|------------------------|
|------------------------|
|------------------------|
|-0----------------------|
|-0----------------------|

Git 1 + 2
|------------------------|
|-6----------------------|
|-9----------------------|
|-0----------------------|
|------------------------|
|------------------------|
|                        |
|------------------------|
|------------------------|
|-10---------------------|
|-x----------------------|
|-8----------------------|
|------------------------|

Git 1 + 2
|------------------------|
|----11------------------|
|----x-----(12)----------|
|----8------10-----------|
|-0------0--10-----------|
|-0------0--10-----------|
|                        |
|------------------------|
|------------------------|
|----10----(12)----------|
|----x------10-----------|
|-0--8---0--10-----------|
|-0------0--10-----------|

Git 1 + 2
|------------------------|
|------------------------|
|------------------------|
|------------------------|
|-0----------------------|
|-0----------------------|
|                        |
|------------------------|
|------------------------|
|------------------------|
|------------------------|
|-0----------------------|
|-0----------------------|

Git 1 + 2
|-----------|-------------|
|------7----|-------7-----|
|------9----|-------9-----|
|-----------|-------------|
|-0--0------|--0--0-------|
|-0--0------|--0--0-------|
| x  x      |  x  x       |     
|-----------|-------------|
|------7----|--------9----|
|------9----|--------9----|
|-----------|--------0----|
|-0--0------|--0--0-------|
|-0--0------|--0--0-------|
  x  x         x  x            
Submit corrections

↑ Back to top | Tablatures and chords for acoustic guitar and electric guitar, ukulele, drums are parodies/interpretations of the original songs. You may use it for private study, scholarship, research or language learning purposes only