Home » B » Burden Of A Day »

Burden Of A Day - Blessed Be Our Ever After Tabs

Artists:  A B C D E F G H I J K L M N O P Q R S T U V W X Y Z # 

Blessed Be Our Ever After Tabs

(ver. 1) Click to play this song!
Burden Of A Day
(Intro)
Burden Of A Day-"Blessed Be Our Ever After"

this is really nice intro to play.
On this cd, Blessed be our Ever After, they use Drop d, Drop d half step down, and Drop C
I should have some of their new stuff tabbed out soon.

sorry this tab was originally wroong, i just updated, it should
be 100% now!

Tuning: Drop C

Guitar 1

D|-------------------------------------|
A|-------------------------------------|
F|---------10/12\99---------12\10/1414-|
C|-0000000--x/-x\xx-8888888--x\-x/-x-x-|
G|-0000000--8/10\77-8888888-10\-8/1212-|
C|-0000000----------8888888------------|

D|------------------------------------------------|
A|------------------------------------------------|
F|----------10/12\99----------------171717/101010-|
C|-0000000---x/-x\xx-10101010101010--x-x-x/-x-x-x-|
G|-0000000---8/10\77-10101010101010-151515/-8-8-8-|
C|-0000000-----------10101010101010---------------|

D|-------------------------------------|
A|-------------------------------------|
F|---------10/12\99---------12\10/1414-|
C|-0000000--x/-x\xx-8888888--x\-x/-x-x-|
G|-0000000--8/10\77-8888888-10\-8/1212-|
C|-0000000----------8888888------------|

D|------------------------|
A|------------------------|
F|----------10/12\99------|
C|-0000000---x/-x\xx-1010-|
G|-0000000---8/10\77-1010-|
C|-0000000-----------1010-|


Guitar 2

D|------------------------------------|
A|---------10\8\6/8---------10\8\1313-|
F|----------x\x\x/x----------x\x\-x-x-|
C|-0000000--7\5\3/5-8888888--7\5\1010-|
G|-0000000----------8888888-----------|
C|-0000000----------8888888-----------|

D|--------------------------------------------|
A|---------10\8\6/8----------------131313\666-|
F|----------x\x\x/x-----------------x-x-x\xxx-|
C|-0000000--7\5\3/5-10101010101010-101010\333-|
G|-0000000----------10101010101010------------|
C|-0000000----------10101010101010------------|

D|------------------------------------|
A|---------10\8\6/8---------10\8\1313-|
F|----------x\x\x/x----------x\x\-x-x-|
C|-0000000--7\5\3/5-8888888--7\5\1010-|
G|-0000000----------8888888-----------|
C|-0000000----------8888888-----------|

D|-----------------------|
A|---------10\8\6/8------|
F|----------x\x\x/x------|
C|-0000000--7\5\3/5-1010-|
G|-0000000----------1010-|
C|-0000000----------1010-|

Guitar 1

D|---------------------------------|
A|---------------------------------|
F|---------------------------------| x4
C|-0-0-0-000-0-000-0h7h8p0---------|
G|-0-0-0-000-0-000--------5h7h8p0--|
C|-0-0-0-000-0-000-----------------|
   . . . ... . ...

Guitar 2

D|-----------------------------------|
A|-----------------------------------|
F|-----------------------------------| x4
C|-0-0-0-000-0-000-0h8h10p0----------|
G|-0-0-0-000-0-000----------7h8h10p0-|
C|-0-0-0-000-0-000-------------------|
   . . . ... . ...

Both Guitars end on as you know.

D|----|
A|----|
F|----|
C|-0~-|
G|-0~-|
C|-0~-|
            
Submit corrections

↑ Back to top | Tablatures and chords for acoustic guitar and electric guitar, ukulele, drums are parodies/interpretations of the original songs. You may use it for private study, scholarship, research or language learning purposes only