Home » B » Bunkface »

Bunkface - Land Of Hope Tabs

Artists:  A B C D E F G H I J K L M N O P Q R S T U V W X Y Z # 

Land Of Hope Tabs

(ver. 1) Click to play this song!
Bunkface
 Rating:
4/5 (4 votes)
                Land of hope tabs

Guitar 1-Lead
Guitar2-Rhythm

P.M.-Palm Muted       h-Hammer-on      b-bend
X-Dead Note           P-Pull Off       /-Slide Up

Intro 1
Guitar 1
E|--------------------------------------------------------------------------|
B|--------------------------------------------------------------------------|
G|------7---------7-------8-------8-------8-------8-------7-------7-------7-|
D|----8---8-----8---8---8---8---8---8---7---7---7---7---8---8---8---8---8---|
A|--------------------6-------6-------8-------8-------6-------6-------------|
E|-6---------6--------------------------------------------------------6-----|

E|-------------------------------|
B|-------------------------------|
G|-------7-------8-----------8---|
D|-8---8---8---8---8---8---8-----|
A|-----------6-------6---6-------|
E|---6---------------------------|

Guitar1 and 2 X2
E|--------------------------------------------------------------------|
B|--------------------------------------------------------------------|
G|--------------------------------------------------------------------|
D|---8---88888888888888---8---8888888888888----8--888--8--88888888888-|
A|---8---88888888888888---8---8888888888888----8--888--8--88888888888-|
E|---6---66666666666666---6---6666666666666----6--666--6--66666666666-|
P.M.     ..............       .............       ...

Intro 2 Guitar 1
Guitar 1
E|-------------------------------------------------------------------|
B|-------------------------------------------------------------------|
G|---7---7---8-7-5-3---7---7-----------7---7---8-7-5-3---7--7--------|  X2
D|-8---8---6---------8---8---6-5-3-1-8---8---6---------8--8---6-7-8--|
A|-------------------------------------------------------------------|
E|-------------------------------------------------------------------|

Guitar 2
E|------------------------------------------------------|
B|------------------------------------------------------|
G|-------------8---------10--------8--------------------|
D|--8----------8---(x8)--10—(x8)---8---(x4)--6--5--8----|  x2
A|--8—(x8)-----6---------8---------6---------6--5--8----|
E|--6----------------------------------------4--7--6----|

Verse Guitar 1 and 2
E|----------------------|   E|---------------------------------------|
B|----------------------|   B|---------------------------------------|
G|----------------------|   G|-10--XXXX-10-8--XXXX--8-10--XXXX-10-8--|
D|-8-XXXX-8-7-XXXX-7-8--|X7 D|-10--XXXX-10-8--XXXX--8-10--XXXX-10-8--|
A|-8-XXXX-8-7-XXXX-7-8--|   A|-8---XXXX-8--6--XXXX--6-8---XXXX-8--6--|
E|-6-XXXX-6-5-XXXX-5-6--|   E|---------------------------------------|

E|-----------------------------|
B|-----------------------------|
G|-10--10--10--10--10--10--10--|
D|-XX--XX--XX--XX--XX--XX--XX--|
A|-8---8---8---8---8---8---8---|
E|-----------------------------|

Chorus Guitar 1 and 2
E|--------------------------------------|     E|---|
B|--------------------------------------|     B|---|
G|-----------8-------10--------8--------|     G|-6-|
D|--8--------8—(X4)--10—(X4)---8—(X4)---|  X2 D|-6-|
A|--8—(X4)---6-------8---------6--------|     A|-4-|
E|--6-----------------------------------|     E|---|


Ulang intro 2

Ualng verse

ulang chorus

Guitar 1
Solo
E|--------------------------------------------------------------------------|
B|--------------------------------------------------------------------------|
G|------7----7h8-7---------7h8-7/10-8-7-5-12-10-8-7-5-7-8-7-5b-----5b-5b-5b-|
D|-8-10---10-------10-8-10--------------------------------------------------|
A|--------------------------------------------------------------------------|
E|--------------------------------------------------------------------------|

E|-----------------------------------------------------------------|
B|-----------------------------------------------------------------|
G|-8p7h8p7h8p7----------8p7h8p7h8p7-10-8-7-5-8p7h8p7h8p7-----------|
D|-------------10-8-5-8----------------------------------10-8-5-8--|
A|-----------------------------------------------------------------|
E|-----------------------------------------------------------------|

E|-------------------------------------------|
B|-------------------------------------------|
G|-7-8-8---8-10-10---10-12-12---12-13-13-13--|
D|-------------------------------------------|
A|-------------------------------------------|
E|-------------------------------------------|

E|-10-6-6-6-----6-6-6-10-6-6-6-11-10-8-8-8--|   E|-9---8---6--4-4--|
B|----------6-8-----------------------------|   B|-----------------|
G|------------------------------------------|   G|-----------------|
D|------------------------------------------|X2 D|-----------------|
A|------------------------------------------|   A|-----------------|
E|------------------------------------------|   E|-----------------|

Guitar 2 Ulang chorus time Solo

Bridge
Guitar 1
E|---------------------------------------------------------------|
B|---------------------------------------------------------------|
G|----------------------------------10----10----10---6---6---6---| X3
D|---8---8---8----10----10----10-11----11----11----8---8---8-----|
A|-9---9---9---11----11----11------------------------------------|
E|---------------------------------------------------------------|

E|-----------------------------------|
B|-----------------------------------|
G|-------------------------------8---|
D|--8888888888888888888888888----8---|
A|--8888888888888888888888888----6---|
E|--6666666666666666666666666--------|
P.M..........................

Ulang Chorus

Ulang Intro 2

Lyrics
Land Of Hope-Bunkface

Verse 1
Corrupted by the lies
kids are craving just to fly
its all a waste of time
if u prefer to die

and i know if there..s no hope
suicide will be abducted
plus mum and dad will be rewarded for the blame!!

Chorus
This is!our nation
Keep it! of the hook so
No one can bring us down!
No one can bring us down!

This is!our nation
Keep it! of the hook so
No one can bring us down!
No one can bring us down!

Verse 2
its spreading on the screen
what i thought could be so mean
the future of the youth is
going down in screams

and i know if there..s no luck
all the lies will be suspended
plus mum and dad will be awaited at the scene!!

Chorus

Bridge
its getting out off hand
what i thought could be planned
it seems were running out of time again

possibly currency
possibly decency
everyone is about to see it all

here..s what i have to say 3x
to save our land of hope...

(C/O)
            
Submit corrections

↑ Back to top | Tablatures and chords for acoustic guitar and electric guitar, ukulele, drums are parodies/interpretations of the original songs. You may use it for private study, scholarship, research or language learning purposes only