Home » B » Bump Of Chicken »

Bump Of Chicken - Lots Tabs

Artists:  A B C D E F G H I J K L M N O P Q R S T U V W X Y Z # 

Lots Tabs

(ver. 1) Click to play this song!
Bump Of Chicken
Bump Of Chicken - [K]

Tuning: Half Step Down (Eb Ab Db Gb Bb eb)

Intro riff
eb|--------------------------------------------------------------3-----|
Bb|------3-------3-------3-------3-------3-------3-------3---------3---|
Gb|----2---2---2---2---2---2---2---2---2---2---2---2---2---2---2-------|
Db|--------------------------------------------------------------------|
Ab|--0-------0-------2-------------------------------2-------2---------|
Eb|--------------------------2-------3-------3-------------------------|

Thats it! Have fun with it!


Bump Of Chicken - [Sailing Day]

INTRO:

-------6-----------------------------------------------------------------|
-------6-----------------------------------------------------------------|
-------8-----------------------------------------------------------------|
-------8-----------------------------------------------------------------|
-------6-----------------------------------------------------------------|
-------6-----------------------------------------------------------------|


-----6-----6-----6------------------------------------------------------|
-------6-----6-----6---------many times---------------------------------|
---------8-----8-----8--------------------------------------------------|

riff: Bb5 F5 G5 Eb5

its very simple....



INTRO
COLDPLAY - CLOCKS
e ----11------11------11-----|----9------9------9------|----9------9------9-----|
B -------11------11------11--|------11------11-----11--|------11-----11-----11--|
G ----------12------12-------|----------10-----10------|----------10-----10-----|
D ---------------------------|-------------------------|------------------------|
A ---------------------------|-------------------------|------------------------|
E ---------------------------|-------------------------|------------------------|

e ----8-------8-------8------|
B -------9-------9-------9---|
G ----------10------10-------|
D ---------------------------|
A ---------------------------|
E ---------------------------|

e -11-11-11--11-9-8----------|-9-9-9-9--9-8------------|
B -------------------11------|--------------11--9------|
G ---------------------------|-------------------------|
D ---------------------------|-------------------------|
A ---------------------------|-------------------------|
E ---------------------------|-------------------------| (Don't know how many times)


This is Coldplays first ever single however its not on any of there albums very rare and
very cool. Ive seen it in the key of C# if you do it in that key just put a capo on 2nd
fret, however if you own the single like me you will know it is in fact in the key i have
done it in. Also use power chords for the intro.
Enjoy.

Chords
B-(0,2,4,4,0,0)
C#-(0,4,6,6,0,0)
D-(0,5,7,7,0,0)
G-(3,5,5,0,0,0)
E-(0,2,2,1,0,0)
Bm(2,2,4,4,3,2)
Asus2-(0,0,2,2,0,0)
G*-(3,2,0,0,3,3)

Intro
B C# D G E

  Bm          Asus2    G*
Brothers and sisters unite
                      Bm
Its the time of your lives
        Asus2         G*
Its the time of your lives
                   Bm
Break down, break down
       Asus2         G*
Gotta spread love around
                    E
Gotta spread it around

    Bm         Asus2      G*
Brothers and sisters feel fine
                       Bm
Its the time of your lives
         Asus2         G*
Its the time of your lives
               Bm
No sound, no sound
           Asus2          G*
Let this feeling you've found
                          E
Let this feeling you've found

                B      C#
But just stay down
                      D    G   E
Cause sometimes you feel
          B        C#
So stay down
                D     G     E
Sometimes you feel
G*                             Asus2
Cause its me they're looking for
G*                           Asus2
And its me, I will never survive
G*                         Asus2     G*
But we'll be around some more.......

Bm             Asus2   G*
Brothers and sisters unite
                       Bm
Its the time of your lives
        Asus2          G*
Its the time of your lives
                   Bm
Break down, break down
       Asus2        G*
Gotta spread love around
                   E
Gotta spread it around

                B      C#
But just stay down
                      D    G   E
Cause sometimes you feel
          B        C#
So stay down
                D     G     E
Sometimes you feel
G*                             Asus2
Cause its me they're looking for
G*                          Asus2
And its me, I will never survive
G*                         Asus2    G
But we'll be around some more.......

Outro
(Same chords as intro)

Its gonna be alrite x3

"Only Superstition"
By Coldplay


Song Order:
INTRO X1
RIFF 1 X1
RIFF 2 X8
RIFF 3 X1
RIFF 1 X1
RIFF 2 X4
RIFF 3 X1
RIFF 1 X1
RIFF 4 X1
CODA

INTRO
E|------0-------------------------------------------------------------------|
B|-1----1-------------------------------------------------------------------|
G|-2----2-------------------------------------------------------------------|
D|-3----3-------------------------------------------------------------------|
A|-0--0-0-------------------------------------------------------------------|
E|--------------------------------------------------------------------------|
Just strum the Fmaj7 chord

RIFF 1
E|--------------------------------------------------------------------------|
B|-----1p0---------------/3-3----3p0------------0---------------------------|
G|----------2p0-----0--2-/4-4--------4p2----0-2--------0--------------------|
D|---3------------2-----------------------2---------0-2---------------------|
A|--------------------------------------------------------------------------|
E|--------------------------------------------------------------------------|

E|--------------------------------------------------------------------------|
B|--1p0--------------/3-3----3p0--1p0---------------------------------------|
G|-------2p0----0--2-/4-4--------------0--0h2-----0-------------------------|
D|-----------2--------------------------------0h2---------------------------|
A|--------------------------------------------------------------------------|
E|--------------------------------------------------------------------------|

E|--------------------------------------------------------------------------|
B|-----1p0---------------/3-3----3p0------------0---------------------------|
G|----------2p0-----0--2-/4-4--------4p2----0-2--------0--------------------|
D|--3------------2-----------------------2---------0-2----------------------|
A|--------------------------------------------------------------------------|
E|--------------------------------------------------------------------------|


E|--------------------------------------------------------------------------|
B|--1p0--------------/3-3---------------------------------------------------|
G|-------2p0----0--2-/4-4-----0--0---2--2---4--4----------------------------|
D|-----------2--------------------------------------------------------------|
A|--------------------------------------------------------------------------|
E|--------------------------------------------------------------------------|


RIFF 2 (Verse)
E|-----0---3---3------0--3--0-----------------------------------------------|
B|--1--1---0---0---1--1--0--0-----------------------------------------------|
G|--2--2-------0---2--2--0--0-----------------------------------------------|
D|--2--2-----------3--3-----------------------------------------------------|
A|--0--0-----2-----0--0-----------------------------------------------------|
E|----------3---------------------------------------------------------------|
Just Am, G, Fmaj7, G strummed


Play the following the eigth time around instead of the above
E|-----0---3---3------0-0---0-----------------------------------------------|
B|--1--1---0---0---1--1-1---1-----------------------------------------------|
G|--2--2-------0---2--2-2---2-----------------------------------------------|
D|--2--2-----------3--3-3---3-----------------------------------------------|
A|--0--0-----2-----0--0-0---0-----------------------------------------------|
E|----------3---------------------------------------------------------------|

RIFF 3 (Pre-Chorus)
E|--------------------------------------------------------------------------|
B|-------------------------3-3-3-3--1---5-5-5-5--3--6-6666-6-5--6/8888-8-6--|
G|--2-4-2-4-2--4--5-5--4---2-2-2-2--2---4-4-4-4--4--------------------------|
D|--3-3-3-3-3--3--5-5--5----------------------------------------------------|
A|--------------------------------------------------------------------------|
E|--------------------------------------------------------------------------|
		"What if cards...."
This part is kind of tricky, the lead guitar is hard to hear, but this is
basically what the guitar plays combined a little with the vocal melody...
It works fairly well, but play around with it a bit. Listen to the recording
and you'll hear the basic idea.


E|------------------------------------------------------(15)----------------|
B|--10-10-10-8--10--12---10-12--10-12--12-13-12-13-12-----------------------|
G|--------------------------------------------------------------------------|
D|--------------------------------------------------------------------------|
A|--------------------------------------------------------------------------|
E|--------------------------------------------------------------------------|
				 "You say to me...."

RIFF 4 (Bridge)
E|-5-5-5--5-----3-3-3---3-----4-4-4--4---4--5-5-55---5----------------------|
B|-5--5-5--5-5--3--3-3---3-3--3--3-3---3-3--5--5---5--5---------------------|
G|--------------------------------------------------------------------------|
D|--------------------------------------------------------------------------|
A|--------------------------------------------------------------------------|
E|--------------------------------------------------------------------------|


E|-5-5-5--5-----3-3-3---3-----4-4-4--4---4--5--5----5---5-------------------|
B|-5--5-5--5-5--3--3-3---3-3--3--3-3---3-3--5--5----5---5-------------------|
G|------------------------------------------5--5----5---5-------------------|
D|------------------------------------------x--x----x---x-------------------|
A|------------------------------------------0--0----0---0-------------------|
E|--------------------------------------------------------------------------|


Coda
E|-0--3--0---3p0-1--3p1--0--3p0-1--3p1--0--3------3-------------------------|
B|-1--0--1------------------------------1--0-----1--------------------------|
G|-2--0--2------------------------------2--0----2---------------------------|
D|-2--x--3------------------------------2--x---3----------------------------|
A|-0--x--0------------------------------0--x--0-----------------------------|
E|----3------------------------------------3--------------------------------|
"It's only superstition..."		    "It's only superstition..."


This is a tab of Jonny's part of Bangers & Mash.

Guitar Tuning: Drop A

Based on this performance of Bangers & Mash, Live from the Basement -



Jonny

Intro
e|--------------------------|
B|--------------------------|
G|--------------------------|
D|--------------/0-----5----|
A|--------------/0-------5--|
A|--10--12--10--/0----------|  x20

e|--------------------------------------|
B|--------------------------------------|
G|--------------------------------------|
D|--7--7--7-----------7--7--7-----------|
A|-----------5--7--x-----------5--7--x--|
A|--------------------------------------| x4

e|--------------------------------------|
B|--------------------------------------|
G|--------------------------------------|
D|--7--7--7-----------7--7--7-----------|
A|-----------5--7--0-----------5--7--0--|
A|-----------------0-----------------0--| x4

e|---------------------------------------------------------------------------|
B|---------------------------------------------------------------------------|
G|-----------------------------------------------10--x--10--12---------------|
D|--------------------3--3--5--------------------12--x--12--12---------------|
A|--0--3--0--3--5--0--3--3--5--0--3--0--3--5--0------------------------------|
A|--0--3--0--3--5--0-----------0--3--0--3--5--0------------------------------|

If you don't understand this bit, watch the
listen to what Jonny does. The timing is
different for Jonny and the rest of the band

e|---------------------------------------------------------------------------|
B|---------------------------------------------------------------------------|
G|-----------------------------------------------10--10--10-10-10-10---------|
D|--------------------3--3--5--------------------12--12--12b12b12b12b--------|
A|--0--3--0--3--5--0--3--3--5--0--3--0--3--5--0------------------------------|
A|--0--3--0--3--5--0-----------0--3--0--3--5--0------------------------------| x2

e|--------------------------------------|
B|--------------------------------------|
G|--------------------------------------|
D|--7--7--7-----------7--7--7-----------|
A|-----------5--7--x-----------5--7--x--|
A|--------------------------------------| x4

e|--------------------------------------|
B|--------------------------------------|
G|--------------------------------------|
D|--7--7--7-----------7--7--7-----------|
A|-----------5--7--0-----------5--7--0--|
A|-----------------0-----------------0--| x8

e|--5----6h8p6h8p6h8p6h8p6p5--5--|
B|-------------------------------|
G|-------------------------------|
D|-------------------------------|
A|-------------------------------|
A|-------------------------------| x8

e|-----------------------------------------------------------------------------|
B|-----------------------------------------------------------------------------|
G|--------12b----------------12b----------------12b------------------12b-------|
D|-------------12b----------------12b----------------12b------------------12b--|
A|-0--0--0------------0--0--0------------0--0--0------------0--0--0------------|
A|-0--0--0------------0--0--0------------0--0--0------------0--0--0------------| x3

e|---------------------------------------------------------------------------|
B|---------------------------------------------------------------------------|
G|-----------------------------------------------10--x--10--12---------------|
D|--------------------3--3--5--------------------12--x--12--12---------------|
A|--0--3--0--3--5--0--3--3--5--0--3--0--3--5--0------------------------------|
A|--0--3--0--3--5--0-----------0--3--0--3--5--0------------------------------| x4

e|--------------------------------------|
B|--------------------------------------|
G|--------------------------------------|
D|--7--7--7-----------7--7--7-----------|
A|-----------5--7--0-----------5--7--0--|
A|-----------------0-----------------0--| x2

e|--5----6h8p6h8p6h8p6h8p6p5--5--|
B|-------------------------------|
G|-------------------------------|
D|-------------------------------|
A|-------------------------------|
A|-------------------------------| x4

e|----------------|
B|--10------------|
G|--12b12b12b12b--|
D|----------------|
A|----------------|
A|----------------|


Boys Like Girls - The Great Escape

---------10-------------10-------------10---------10------|
-----10------10-----10------10-----10---------10------10--|
--7--------------6----------------------------------------|
--------------------------------9----------7--------------|
----------------------------------------------------------|
----------------------------------------------------------|

--------------|--------------|----------|
--------------|--------------|----------|
--------------|--6--2-----4--|--14--13--|
--9--5--0--7--|--6--2--2--4--|--X---X---|
--9--5--0--7--|--4--0--2--2--|--12--11--|
--9--5--0--7--|--------0-----|----------|


Bump Of Chicken - カルマ

--15--14-----------------------|-----7--------10------10------[8]--[10]-----|
----------15--10--[8]--[b10s]--|-----8--7--8--10--10--10--10--[8]--[10]-----|
--12--11----------[-]--[b10s]--|--9-----7--9------11------11-------(8)---9--|
----------12--7---[5]----------|--9--------------------------------------9--|
-------------------------------|--------------------------------------------|
-------------------------------|--------------------------------------------|


--7--7--7-----10------10------[8]--[10s]------------------------------------|
--7--7--7--7--10--10--10--10--[8]--[10s]------------------------------------|
-----------7------11------11------------------------------------------------|


--5--5--X--5--X--5--5--X--X--5--X--5--2--X--2--X--X--2--X--------------------|
--3--3--X--3--X--2--2--X--X--2--X--2--0--X--0--X--X--0--X--2--X--X--2--X--X--|
-----------------------------------------------------------0--X--X--0--X--X--|


-----------------------------5--X--X--5--X--X--5--X--5--2--X--2--X--X--2--X--|
--X--2--5--X--5--X--X--5--X--2--X--X--2--X--X--2--X--2--0--X--0--X--X--0--X--|
--X--0--2--X--2--X--X--2--X--------------------------------------------------|


---------------------------|
------------------------5--|
------------------------2--|
2--X--X--2--X--X--2--2--2--|
0--X--X--0--X--X--0--0--0--|
---------------------------|



Bump Of Chicken - 天體觀測

----------------------------10--12--10--------------------7--10--------------|
--7--9--7--11s7--9--7--11s--------------7--9--7--11s7--9---------11----------|

part 2
----------------------------10--12--10----------------------------------15--14--|
--7--8--7--10--7--8--7--10--------------7--8--7--10--7--8--10--15s--------------|

--[9]--11--X--[7]--[9]--11--X--[14]s--------------------------------|
--[7]--9---X--[5]--[7]--9---X--[12]s--------------------------------|


Bump Of Chicken - ガラスのブルース


D A G D -
--7-----7-----6--7--9--6--------------------------------------------|
--5--5--5--5--5--5--5--5--------------------------------------------|
-----5-----5--------------------------------------------------------|
            
Submit corrections

↑ Back to top | Tablatures and chords for acoustic guitar and electric guitar, ukulele, drums are parodies/interpretations of the original songs. You may use it for private study, scholarship, research or language learning purposes only