Home » B » Bumblefoot »

Bumblefoot - Zero Tabs

Artists:  A B C D E F G H I J K L M N O P Q R S T U V W X Y Z # 

Zero Tabs

(ver. 1) Click to play this song!
Bumblefoot
ZERO
                             As recorded by Ron Thal
                          (From the 1997 Album HERMIT)

Music by Ron Thal
Arranged by Ron Thal

Gtr I (E A D G B E) - 'Gtr'

    A5             Bb7         A5           Bb7
   4/4
    Gtr I
    |----6-----| |----6----|   |----6-----| |----6----|
    E E E  E E E E E E E E E   E E E  E E E E E E E E E
||---------------------------|--------------------------|
||o-------10-----------9-----|-------10-----------9-----|
||------9----9-------7---7---|-----9----9-------7---7---|
||----7--------7---8-------8-|---7--------7---8-------8-|
||o-0------------0-----------|-0------------0-----------|
||---------------------------|--------------------------|


  A5           Bb7           A5
  |----6-----| |----6----|   |----6-----|  |----6-----|
  E E E  E E E E E E E E E   E E E  E E E  E E  E E E E
|--------------------------|-----------------0-----------|
|-------10-----------9-----|-------10-----10---10--------|
|-----9----9-------7---7---|-----9------9---------9---9--|
|---7--------7---8-------8-|---7------7-------------7----|
|-0------------0-----------|-0---------------------------|
|--------------------------|-----------------------------|


  A5           Bb7           A5           Bb7
  |----6-----| |----6----|   |----6-----| |----6----|
  E E E  E E E E E E E E E   E E E  E E E E E E E E E
|--------------------------|--------------------------|
|-------10-----------9-----|-------10-----------9-----|
|-----9----9-------7---7---|-----9----9-------7---7---|
|---7--------7---8-------8-|---7--------7---8-------8-|
|-0------------0-----------|-0------------0-----------|
|--------------------------|--------------------------|


  A5           Bb7           A5
  |----6-----| |----6----|   |----6-----|  |----6-----|
  E E E  E E E E E E E E E   E E E  E E E  E E  E E E E
|--------------------------|-----------------0-------------|
|-------10-----------9-----|-------10-----10---10----------|
|-----9----9-------7---7---|-----9------9---------9---9----|
|---7--------7---8-------8-|---7------7-------------7------|
|-0------------0-----------|-0-----------------------------|
|--------------------------|-------------------------------|


  G#m6                      B6          Bb
  |----6----| |----6----|   |----6----| |----6----|
  E E E E E E E E E E E E   E E E E E E E E E E E E
|-------0-----------0-----|-------0-----------0-----|
|-----9---9-------9---9---|-----9---9-------6---6---|
|---8-------8---8-------8-|---8-------8---7-------7-|
|-6-----------6-----------|-9-----------8-----------|
|-------------------------|-------------------------|
|-------------------------|-------------------------|


              Bbm6b5
  |----6----| |----6----|
  E E E E E E E E E E E E
|-------0-----------0-------|
|-----6---6-------7---7-----|
|---7-------7---6-------6---|
|-8-----------8-------------|
|---------------------------|
|---------------------------|


  G#m6                      B6          Bb
  |----6----| |----6----|   |----6----| |----6----|
  E E E E E E E E E E E E   E E E E E E E E E E E E
|-------0-----------0-----|-------0-----------0-----|
|-----9---9-------9---9---|-----9---9-------6---6---|
|---8-------8---8-------8-|---8-------8---7-------7-|
|-6-----------6-----------|-9-----------8-----------|
|-------------------------|-------------------------|
|-------------------------|-------------------------|


              Bbm6b5
  |----6----| |----6----|
  E E E E E E E E E E E E
|-------0-----------0-------|
|-----6---6-------7---7-----|
|---7-------7---6-------6---|
|-8-----------8-------------|
|---------------------------|
|---------------------------|


  B6                            C#6b5            D#m6
  |-----6-----| |-----6-----|    |------6------|  |------6------|
  E  E E E E  E E  E E E E  E    E  E  E E  E  E  E  E  E E  E  E
|--------0-------------0------|----------0----------------0-------|
|------9---9---------9---9----|-------11---11----------12---12----|
|---11-------11---11-------11-|----12---------12----13---------13-|
|-9-------------9-------------|-11---------------13---------------|
|-----------------------------|-----------------------------------|
|-----------------------------|-----------------------------------|


                   Eb5
   |------6------|  |------6------|
   E  E  E E  E  E  E  E  E E  E  E
|----------0----------------0---------||
|-------12---12----------14---14------||
|----13---------13----15---------15---||
|-13---------------14-----------------||
|-------------------------------------||
|-------------------------------------||


  F#6sus4                   Gm6         G#m
  |----6----| |----6----|   |----6----| |----6----|
  E E E E E E E E E E E E   E E E E E E E E E E E E
|-------0-----------0-----|-------0-----------0-----|
|-----4---4-------4---4---|-----4---4-------4---4---|
|---4-------4---4-------4-|---3-------3---4-------4-|
|-4-----------4-----------|-5-----------6-----------|
|-------------------------|-------------------------|
|-------------------------|-------------------------|


              A6b5
  |----6----| |----6----|
  E E E E E E E E E E E E
|-------0-----------0-------|
|-----4---4-------7---7-----|
|---4-------4---8-------8---|
|-6-----------7-------------|
|---------------------------|
|---------------------------|


  B6                            C#6b5            D#m6
  |-----6-----| |-----6-----|    |------6------|  |------6------|
  E  E E E E  E E  E E E E  E    E  E  E E  E  E  E  E  E E  E  E
|--------0-------------0------|----------0----------------0-------|
|------9---9---------9---9----|-------11---11----------12---12----|
|---11-------11---11-------11-|----12---------12----13---------13-|
|-9-------------9-------------|-11---------------13---------------|
|-----------------------------|-----------------------------------|
|-----------------------------|-----------------------------------|


                   Eb5
   |------6------|  |------6------|
   E  E  E E  E  E  E  E  E E  E  E
|----------0----------------0----------||
|-------12---12----------14---14------o||
|----13---------13----15---------15----||
|-13---------------14------------------||
|-------------------------------------o||
|--------------------------------------||


    F#6sus4
    |----6----| |----6----|
    E E E E E E E E E E E E
||--------0-----------0-----|
||o-----4---4-------4---4---|
||----4-------4---4-------4-|
||--4-----------4-----------|
||o-------------------------|
||--------------------------|


  Gm6         G#m                       A6b5
  |----6----| |----6----|   |----6----| |----6----|
  E E E E E E E E E E E E   E E E E E E E E E E E E
|-------0-----------0-----|-------0-----------0------|
|-----4---4-------4---4---|-----4---4-------7---7----|
|---3-------3---4-------4-|---4-------4---8-------8--|
|-5-----------6-----------|-6-----------7------------|
|-------------------------|--------------------------|
|-------------------------|--------------------------|


  B6                            C#6b5            D#m6
  |-----6-----| |-----6-----|    |------6------|  |------6------|
  E  E E E E  E E  E E E E  E    E  E  E E  E  E  E  E  E E  E  E
|--------0-------------0------|----------0----------------0-------|
|------9---9---------9---9----|-------11---11----------12---12----|
|---11-------11---11-------11-|----12---------12----13---------13-|
|-9-------------9-------------|-11---------------13---------------|
|-----------------------------|-----------------------------------|
|-----------------------------|-----------------------------------|


                   Eb5
   |------6------|  |------6------|
   E  E  E E  E  E  E  E  E E  E  E
|----------0----------------0----------||
|-------12---12----------14---14------o||
|----13---------13----15---------15----||
|-13---------------14------------------||
|-------------------------------------o||
|--------------------------------------||


    Bm          D/B           C#7         Aadd9
                                                         2/4
    |----6----| |----6----|   |----6----| |----6----|
    E E E E E E E E E E E E   E E E E E E E E E E E E  4x H
||--------------------------|-------------------0------||------*|
||o-------0-----------0-----|-------0-----------------o||------*|
||------7---7-------7---7---|-----6---6-------6---6----||------*|
||----9-------9---7-------7-|---6-------6---7-------7--||------*|
||o-9-----------9-----------|-8-----------7-----------o||------*|
||--------------------------|--------------------------||------*|


Duration Legend
---------------
W - whole; H - half; Q - quarter; E - 8th; S - 16th; T - 32nd; X - 64th; a - acciaccatura
+ - note tied to previous; . - note dotted; .. - note double dotted
Uncapitalized letters represent notes that are staccato (1/2 duration)
Irregular groupings are notated above the duration line
Duration letters will always appear directly above the note/fret number it represents the
duration for.  Duration letters with no fret number below them represent rests.  Multi-
bar rests are notated in the form Wxn, where n is the number of bars to rest for.  Low
melody durations appear below the staff

Tablature Legend
----------------
 h   - hammer-on
 p   - pull-off
 b   - bend
 pb  - pre-bend
 r   - bend release (if no number after the r, then release immediately)
 /\  - slide into or out of (from/to "nowhere")
 s   - legato slide
 S   - shift slide
<n>  - natural harmonic
[n]  - artificial harmonic
n(n) - tapped harmonic
 ~   - vibrato
 tr  - trill
 T   - tap
 TP  - trem. picking
 PM  - palm muting
\n/  - tremolo bar dip; n = amount to dip
 \n  - tremolo bar down
 n/  - tremolo bar up
/n\  - tremolo bar inverted dip
 =   - hold bend; also acts as connecting device for hammers/pulls
 <>  - volume swell (louder/softer)
 x   - on rhythm slash represents muted slash
 o   - on rhythm slash represents single note slash

Misc Legend
-----------
 |  - bar
||  - double bar
||o - repeat start
o|| - repeat end
*|  - double bar (ending)
 :  - bar (freetime)
 $  - Segno
 &  - Coda
Tempo markers - <E/E./Q/Q./H/H.> = BPM(8/16=s8/s16), where s8 = swing 8ths, s16 = swing 16ths
            
Submit corrections

↑ Back to top | Tablatures and chords for acoustic guitar and electric guitar, ukulele, drums are parodies/interpretations of the original songs. You may use it for private study, scholarship, research or language learning purposes only