» » »

Bumblefoot - Vomit Tabs

Artists:  A B C D E F G H I J K L M N O P Q R S T U V W X Y Z # 

Vomit Tabs

(ver. 1) Click to play this song!
Bumblefoot
 Rating:
4/5 (4 votes)

 Vomit lessons Tabs too difficult? Try these video lessons and learn fast
 
                VOMIT
                            As recorded by Bumblefoot
                           (From the 1998 Album HANDS)

Words and Music by Ron Thal

Gtr I (E A D G B E) - 'Untitled'

 Verse 1
  Q=125
 4/4
  Gtr I
  |-3-| |-3--|
  Q Q Q Q Q +Q      S e S S S S S S E S E E   S e S S S S S S E S  E E
|---------------||--7---------8S7---7---7-6-|-7---------8S7---7---10S6-|
|---------------||o-8---------9S8---8---8-7-|-8---------9S8---8---11S7-|
|---------------||--7---------8S7---7---7-6-|-7---------8S7---7---10S6-|
|-2-2-2-2-2-(2)-||----6-6---6---------6-----|---6-6---6---------6------|
|-2-2-2-2-2-(2)-||o-------------------------|--------------------------|
|-0-0-0-0-0-(0)-||--------------------------|--------------------------|


                            1.,2.,3.,4.,5.             6.
  S e S S S S S S E S E E   S e S S S S S S E S Q   6x Q  H.
|-7---------8S7---7---7-6-|-7---------8S7---7---6---||-7--------|
|-8---------9S8---8---8-7-|-8---------9S8---8---7--o||-8--------|
|-7---------8S7---7---7-6-|-7---------8S7---7---6---||-7--------|
|---6-6---6---------6-----|---6-6---6---------6-----||----------|
|-------------------------|------------------------o||----------|
|-------------------------|-------------------------||----------|


   Chorus
   4/4
            ~~~
    |-3--|
    Q Q  Q +H       S S S S S S S S S S S S S S S S
||----------------|---------------------------------|
||o---------------|---------------------------------|
||----------------|-------------6-------------------|
||----------------|---------0h5-------6p5-----------|
||o-----/7-(7)----|---------------0h5-----7p5p0---2-|
||--0-0-----------|---0-4h6---------------------1---|


          ~~~                             ~
  |-3--|
  Q Q  Q +H       S S S S S S S S S S S S Q
|---------------|-----------------------------||
|---------------|----------------------------o||
|---------------|-------------6---------9-7---||
|---------------|---------0h5-------6p5-------||
|-----/7-(7)----|---------------0h5----------o||
|-0-0-----------|---0-4h6---------------------||


 Verse 2
  |-3-| |-3--|
  Q Q Q Q Q +Q      S e S S S S S S E S E E   S e S S S S S S E S  E E
|---------------||--7---------8S7---7---7-6-|-7---------8S7---7---10S6--|
|---------------||o-8---------9S8---8---8-7-|-8---------9S8---8---11S7--|
|---------------||--7---------8S7---7---7-6-|-7---------8S7---7---10S6--|
|-2-2-2-2-2-(2)-||----6-6---6---------6-----|---6-6---6---------6-------|
|-2-2-2-2-2-(2)-||o-------------------------|---------------------------|
|-0-0-0-0-0-(0)-||--------------------------|---------------------------|


                            1.,2.,3.,4.,5.             6.
  S e S S S S S S E S E E   S e S S S S S S E S Q   6x Q  H.
|-7---------8S7---7---7-6-|-7---------8S7---7---6---||-7--------|
|-8---------9S8---8---8-7-|-8---------9S8---8---7--o||-8--------|
|-7---------8S7---7---7-6-|-7---------8S7---7---6---||-7--------|
|---6-6---6---------6-----|---6-6---6---------6-----||----------|
|-------------------------|------------------------o||----------|
|-------------------------|-------------------------||----------|


   Chorus
            ~~~
    |-3--|
    Q Q  Q +H       S S S S S S S S S S S S S S S S
||----------------|---------------------------------|
||o---------------|---------------------------------|
||----------------|-------------6-------------------|
||----------------|---------0h5-------6p5-----------|
||o-----/7-(7)----|---------------0h5-----7p5p0---2-|
||--0-0-----------|---0-4h6---------------------1---|


          ~~~                             ~
  |-3--|
  Q Q  Q +H       S S S S S S S S S S S S Q   4x
|---------------|-----------------------------||
|---------------|----------------------------o||
|---------------|-------------6---------9-7---||
|---------------|---------0h5-------6p5-------||
|-----/7-(7)----|---------------0h5----------o||
|-0-0-----------|---0-4h6---------------------||


                  Guitar solo
  |-3-| |-3--|            |-3--|          |--3--|
  Q Q Q Q Q +Q     E.  S +E  E E E E   E  S  S  S
|---------------||-------------------/22p19-------|
|---------------||---------------9p0--------21p20-|
|---------------||-------------7------------------|
|-2-2-2-2-2-(2)-||-----------9--------------------|
|-2-2-2-2-2-(2)-||----\7-(7)----------------------|
|-0-0-0-0-0-(0)-||--------------------------------|


            \7___/               \7_________/
                           ~~~~
   S  E  S  E.   S  +Q    +Q     H      +E  Q.
|---------------22-(22)--(22)--|------------------|
|------------------------------|-0------(0)-------|
|-21---------------------------|-0------(0)-0-----|
|----20-20-20------------------|-0------(0)-------|
|------------------------------|------------------|
|------------------------------|------------------|


   |          \0.5
                         ~~~~~~~~~~~~~~~~~~~~~~~~~~~~
                              |---------5---------|
  +H         +H          Q    E    E    E    E    E  Q
|---------------------|----------------------------------|
|---------------------|----------------------------------|
|-(0)b1.5r===(0)------|-12--[12]-[12]-[12]-[12]-[12]-----|
|---------------------|----------------------------------|
|---------------------|------------------------------0\--|
|---------------------|----------------------------------|


   ~~~~~~~~~~~~~~~~~~~~~~~~~~~~
        |---------5---------|
   Q    E    E    E    E    E  Q
|-----------------------------------|
|-----------------------------------|
|-12--[12]-[12]-[12]-[12]-[12]------|
|-----------------------------------|
|------------------------------0\---|
|-----------------------------------|


                                        ~~~~~
  E  E     +S   S  S  S  S  S  S  S  S  E.
|--------------19-15-------18----------20b22-|
|---16b17-(16)-------------------------------|
|--------------------18-15----------19-------|
|-----------------------------16-18----------|
|--------------------------------------------|
|--------------------------------------------|


  S +S  S S S S T  T T T  T T T  T T  T  T  T  T  T  T  T  T  T  T  T
|---------------------------------------------------12S14h16h18h20h22-|
|------------------------------------------11h12-14-------------------|
|----------------------------------9-10-12----------------------------|
|-8-(8)-5-------------------7-9-10------------------------------------|
|---------7-5--------7-8-10-------------------------------------------|
|-------------7-9-10--------------------------------------------------|


                                                                      ~~~~~~~~~~
      |------6-------|       |------6-------|       |------6-------|            |-----5-----|
   E  T  T  T  T  T  T  +S   T  T  T  T  T  T  +S   T  T  T  T  T  T  S.  T  E  T  T  T  T  T
|-24p22p20p18p16p14s12-(12)s14h16h18h20h22h24-(24)p22p20p18p16p14s12-12--14s12s14h16h18h20h22-|
|---------------------------------------------------------------------------------------------|
|---------------------------------------------------------------------------------------------|
|---------------------------------------------------------------------------------------------|
|---------------------------------------------------------------------------------------------|
|---------------------------------------------------------------------------------------------|


                                                                       ~~~~~~~~~
      |------6-------|       |------6-------|       |------6-------|
   E  T  T  T  T  T  T  +S   T  T  T  T  T  T  +S   T  T  T  T  T  T  +S.  T  Q
|-24p22p20p18p16p14s12-(12)s14h16h18h20h22h24-(24)p22p20p18p16p14s12-(12)-14s12--|
|--------------------------------------------------------------------------------|
|--------------------------------------------------------------------------------|
|--------------------------------------------------------------------------------|
|--------------------------------------------------------------------------------|
|--------------------------------------------------------------------------------|


  E  S     +S       +S   S  S  S  E.    S     +S   S  E
|--------------------------------17b19r17b19-(17)-15-17b19-|
|---14b15-(14)pb15r(14)-12---------------------------------|
|--------------------------13S15---------------------------|
|----------------------------------------------------------|
|----------------------------------------------------------|
|----------------------------------------------------------|


                                             \0.75/
                        |-------6--------|
   S  S  S     +S      +E       S  S  S  S   E       S  S      +E    S  S
|-15-12--------------------------------------------------------------------|
|-------14b15r(14)b15-(14)pb15r12-------------------12-----------------15--|
|---------------------------------15-13-12-/13---------14b16==(14)r-15-----|
|--------------------------------------------------------------------------|
|--------------------------------------------------------------------------|
|--------------------------------------------------------------------------|


      T                              ~~
                     |--3--|
   S  E     S  S  S  S  S  S  Q      Q    E   E   E.    +S   H
|----22b24p15-------------18------------|-------------------15-------|
|-17----------------19-20----17b20--17--|-x\-12-(12)--------17b20----|
|-------------13S16---------------------|-x\-----14b16r(14)----------|
|---------------------------------------|-x\-------------------------|
|---------------------------------------|----------------------------|
|---------------------------------------|----------------------------|


                                               T                          T
                            |-------6-------|  |-----5-----|  |------6-------|
  E E  Q   E.  S  E.   S    E     E  E  E   Q  S  S  S  S  S  S  S  S  S  S  S
|------------------------|-12b13r===17----/22-22p17p16----------16h17h22h27p17-|
|------------------------|-----------------------------------------------------|
|---------/6b7r==11b12r6-|-------11----16--------------19p18h19----------------|
|---2-/5-------5---------|-----------------------------------------------------|
|------------------------|-----------------------------------------------------|
|------------------------|-----------------------------------------------------|


   T           T     T  T        T        T
   |------6-------|  |--------7--------|  |--------7--------|  |--------7--------|
   S  S  S  S  S  S  S  S  S  S  S  S  S  S  S  S  S  S  S  S  S  S  S  S  S  S  S
|-20----------20----20-30-21-16----19-16-------18----20-28-20-------18----------17-|
|----17----17----17-------------------------16----20----------20-------15----15----|
|-------16----------------------20-------------------------------19----------------|
|----------------------------------------20-------------------------------19-------|
|----------------------------------------------------------------------------------|
|----------------------------------------------------------------------------------|


   |--------7--------|  |--------7--------|  |--------7--------|  |--------7--------|
   S  S  S  S  S  S  S  S  S  S  S  S  S  S  S  S  S  S  S  S  S  S  S  S  S  S  S  S
|-19----19----------------17----30----18-------------------17----29----17----16--------|
|----20----------22-14-------------20----------22-------------------19-----------------|
|----------23-20-------------22----------22-17----17----19----21----------21----17-13--|
|----------------------18----------------------------17--------------------------------|
|--------------------------------------------------------------------------------------|
|--------------------------------------------------------------------------------------|


   ~~
                   |--3--|                       |--3--|
   Q   S  S  S  S  S  S  S  S  S     +S       S  S  S  S
|--------------------------------------------------------|
|-----------------------12-15-14b15-(14)pb15r=========17-|
|-12-----------------12----------------------16----16----|
|-----14-12----12-14----------------------------18-------|
|-----------14-------------------------------------------|
|--------------------------------------------------------|


                                                                  \7
                                                    ~~~~~~~~~~~~
   |--3--|                     |--3--|     |--3--|
   S  S  S      +E    +S       S  S  S  S  S  S  S  E      +E    +E
|-15-19--------------------------------------21-22--------------------|
|-------22b24==(22)r-(22)pb24r============20-------24b27==(24)r-(24)--|
|--------------------------------------19-----------------------------|
|-----------------------------16-17-18--------------------------------|
|---------------------------------------------------------------------|
|---------------------------------------------------------------------|


           ~~~~                 ~~~~~~            ~~~
                                                       |--3---|
  S  E.E   Q.    Q     S  E.E   H       E    Q    Q   +E   E  E  S  S  E
|--------/24---------|--------/24b25------|---------------------------15b18-|
|--------------------|--------------------|---------------------------------|
|--------------------|--------------------|---------------------------------|
|--------------------|--------------------|---------------------12----------|
|--------------------|--------------------|---------------11-14----14-------|
|-7S12S7--------12\--|-7S12S7-------------|-\0--/12--(12)-------------------|


                                 ~~~~~~~~~~~~
                        |--3--|
   S  S  S     S  E     E  E  E  E      +Q
|-12-------------------19-16-15-22b24==(22)r---||
|----15-14b15----15b17-------------------------||
|-------------12-------------------------------||
|----------------------------------------------||
|----------------------------------------------||
|----------------------------------------------||


 Vocals & drums
  Wx24
|---------|
|---------|
|---------|
|---------|
|---------|
|---------|


   Chorus
   4/4
            ~~~
    |-3--|
    Q Q  Q +H       S S S S S S S S S S S S S S S S
||----------------|---------------------------------|
||o---------------|---------------------------------|
||----------------|-------------6-------------------|
||----------------|---------0h5-------6p5-----------|
||o-----/7-(7)----|---------------0h5-----7p5p0---2-|
||--0-0-----------|---0-4h6---------------------1---|


          ~~~                             ~
  |-3--|                                         |-3-| |-3--|
  Q Q  Q +H       S S S S S S S S S S S S Q      Q Q Q Q Q +Q
|---------------|-----------------------------||---------------*|
|---------------|----------------------------o||---------------*|
|---------------|-------------6---------9-7---||---------------*|
|---------------|---------0h5-------6p5-------||-2-2-2-2-2-(2)-*|
|-----/7-(7)----|---------------0h5----------o||-2-2-2-2-2-(2)-*|
|-0-0-----------|---0-4h6---------------------||-0-0-0-0-0-(0)-*|


Duration Legend
---------------
W - whole; H - half; Q - quarter; E - 8th; S - 16th; T - 32nd; X - 64th; a - acciaccatura
+ - note tied to previous; . - note dotted; .. - note double dotted
Uncapitalized letters represent notes that are staccato (1/2 duration)
Irregular groupings are notated above the duration line
Duration letters will always appear directly above the note/fret number it represents the
duration for.  Duration letters with no fret number below them represent rests.  Multi-
bar rests are notated in the form Wxn, where n is the number of bars to rest for.  Low
melody durations appear below the staff

Tablature Legend
----------------
 h   - hammer-on
 p   - pull-off
 b   - bend
 pb  - pre-bend
 r   - bend release (if no number after the r, then release immediately)
 /\  - slide into or out of (from/to "nowhere")
 s   - legato slide
 S   - shift slide
<n>  - natural harmonic
[n]  - artificial harmonic
n(n) - tapped harmonic
 ~   - vibrato
 tr  - trill
 T   - tap
 TP  - trem. picking
 PM  - palm muting
\n/  - tremolo bar dip; n = amount to dip
 \n  - tremolo bar down
 n/  - tremolo bar up
/n\  - tremolo bar inverted dip
 =   - hold bend; also acts as connecting device for hammers/pulls
 <>  - volume swell (louder/softer)
 x   - on rhythm slash represents muted slash
 o   - on rhythm slash represents single note slash

Misc Legend
-----------
 |  - bar
||  - double bar
||o - repeat start
o|| - repeat end
*|  - double bar (ending)
 :  - bar (freetime)
 $  - Segno
 &  - Coda
Tempo markers - <E/E./Q/Q./H/H.> = BPM(8/16=s8/s16), where s8 = swing 8ths, s16 = swing 16ths
            
Submit corrections


        Vomit lessons Hard to play? Try these video lessons and learn fast Vomit lessons
        
↑ Back to top | Tablatures and chords for acoustic guitar and electric guitar, ukulele, drums are parodies/interpretations of the original songs. You may use it for private study, scholarship, research or language learning purposes only