» » »

Bumblefoot - Limberneck Tabs

Artists:  A B C D E F G H I J K L M N O P Q R S T U V W X Y Z # 

Limberneck Tabs

(ver. 1) Click to play this song!
Bumblefoot
 Rating:
4/5 (4 votes)

 Limberneck lessons Tabs too difficult? Try these video lessons and learn fast
 
                LIMBERNECK
                      As recorded by Ron Thal - Bumblefoot
                             (From the 199 Album ?)

Words by Ron Thal ( Yeah !)

Music by Ron Thal
Arranged by Ron Thal

Gtr I (E A D G B E) - 'Guit'

  H=104
 4/4
             Gtr I
  W          Q  Q  E E Q    Q  E E Q  Q    Q  Q  Q  Q    Q  Q  E E Q
|----------|----3----2----|-1----0-------|-------3--0--|---------0------|
|----------|--------------|-----------3--|-1-----1-----|----1-----------|
|----------|----4----3----|-2----0-------|----------0--|---------0------|
|----------|--------------|-----------3--|-2-----------|----2-----------|
|----------|--------------|--------0--2--|-3--3--3--3--|-3--3--3---3----|
|----------|-3--3--3---3--|-3--3---------|-------------|----------------|


                                 T
                                    |-3-|
  Q  Q  E E Q    Q  E E E E Q    Q  E E E  E E Q    Q  E E E E Q
|--------------|-0-------------|------------------|----------------|
|---------0----|------0---3----|-1------4-\3-1----|-1--------1-----|
|----1---------|-1-------------|------2--------2--|------2---------|
|---------2----|------2---2----|-3--3-------------|-3----------3---|
|----2---------|---------------|------------------|--------3-------|
|-0--0--0---0--|-0--0---0---0--|-1----------------|-1--1-----------|


  Q  Q  E E Q    Q  E E E E Q    Q  Q  E E Q    Q  E E  E E Q
|--------------|---------------|--------------|----------------|
|----5----4----|-3--------1----|----5----4----|-3---------2----|
|--------------|------------0--|----6----5----|-4-----------0--|
|----5----4----|-3----1h2------|----5----4----|-3----1-/2------|
|-3--3--3---3--|-3--3----------|-0--0--0---0--|-0--0-----------|
|--------------|---------------|--------------|----------------|


  Q  Q  E E Q    Q  E   E  E  E  Q     E  E  Q   Q   Q    a Q  Q  Q  Q
|----2----8----|-7-----------13-----|----12-----11--10--|-8--------------|
|----1----7----|-6--------------12--|----11-----10---9--|-8--------------|
|----2------7--|-7--------12--------|-------12--11--10--|-8h9------------|
|-0--0--0------|-5--5-/12-----------|-10----------------|----------------|
|--------------|--------------------|-------------------|----------------|
|--------------|--------------------|-------------------|------0--1--2---|


  Q  Q  E E Q    Q  E E Q  Q    Q  Q  Q  Q    Q  Q  E E Q
|----3----2----|-1----0-------|-------3--0--|---------0----|
|--------------|-----------3--|-1-----1-----|----1---------|
|----4----3----|-2----0-------|----------0--|---------0----|
|--------------|-----------3--|-2-----------|----2---------|
|--------------|--------0--2--|-3--3--3--3--|-3--3--3---3--|
|-3--3--3---3--|-3--3---------|-------------|--------------|


                                 T
                                    |-3-|
  Q  Q  E E Q    Q  E E E E Q    Q  E E E  E E Q    Q  E E E E Q
|--------------|-0-------------|------------------|----------------|
|---------0----|------0---3----|-1------4-\3-1----|-1--------1-----|
|----1---------|-1-------------|------2--------2--|------2---------|
|---------2----|------2---2----|-3--3-------------|-3----------3---|
|----2---------|---------------|------------------|--------3-------|
|-0--0--0---0--|-0--0---0---0--|-1----------------|-1--1-----------|


  Q  Q  E E Q    Q  E E E E Q    Q  Q  E E Q    Q  E E  E E Q
|--------------|---------------|--------------|----------------|
|----5----4----|-3--------1----|----5----4----|-3---------2----|
|--------------|------------0--|----6----5----|-4-----------0--|
|----5----4----|-3----1h2------|----5----4----|-3----1-/2------|
|-3--3--3---3--|-3--3----------|-0--0--0---0--|-0--0-----------|
|--------------|---------------|--------------|----------------|


  Q  Q  E E Q    Q  E   E  E  E  Q
|----2----8----|-7-----------13-----|
|----1----7----|-6--------------12--|
|----2------7--|-7--------12--------|
|-0--0--0------|-5--5-/12-----------|
|--------------|--------------------|
|--------------|--------------------|


    E  E  Q    E  E  Q      E  E  Q    E  E  Q
|-----15---------14-----|-----12---------11-----|
|--------13---------16--|--------11---------13--|
|-/15--------/14--------|-/12--------/11--------|
|-----------------------|-----------------------|
|-----------------------|-----------------------|
|-----------------------|-----------------------|


                                    |-3-|         |-3-|   |-3-|         |-3-|
   E E  Q   E E  Q    Q  Q  Q  Q    E E E E E E E E E E   E E E E E E E E E E
|----8--------8-----|-6--5--4--3--|---------------------|---------------------|
|------11-------10--|-8--7--6--5--|---------5---------5-|---------5---------5-|
|-/9-------/8-------|-5-----------|-----7-----------7---|-----7-----------7---|
|-------------------|-------------|---6---------6-------|---6---------6-------|
|-------------------|-------------|-------7-------7-----|-------7-------7-----|
|-------------------|-------------|-0---------0---------|-0---------0---------|


  |-3-|         |-3-|      |-3-|
  E E E E E E E E E E   Q  E E E  E E Q
|-----5---4---3-----2-|------------------|
|---------------------|--------4-\3p1----|
|---5-----4---3---2---|------2--------2--|
|---------------0-----|-1--3-------------|
|-0-----2---3---------|---------------3--|
|---------------------|-1----------------|


  |-3-|         |-3-|   |-3-|         |-3-|
  E E E E E E E E E E   E E E E E E E E E E
|---------------------|-----------------------|
|---------5---------5-|---------5---------5---|
|-----7-----------7---|-----7-----------7-----|
|---6---------6-------|---6---------6---------|
|-------7-------7-----|-------7-------7-------|
|-0---------0---------|-0---------0-----------|


                                              H=136
  Q  Q  E  E Q    Q    H    Q       +H      E E Q    Q  Q  E E Q
|----5-----8----|-5--^10--------|--(10)-------x----|----3----2----|
|----5----10----|-7--^13--------|--(13)-------x----|--------------|
|----5-----9----|-7--^11--------|--(11)-------x----|----4----3----|
|---------------|-0--^-0--------|---(0)---------x--|--------------|
|-0--0--0----0--|---------<12>--|-(<12>)--------x--|--------------|
|---------------|---------------|---------------x--|-3--3--3---3--|


  Q  E E Q  Q    Q  Q  Q  Q    Q  Q  E E Q    Q  Q  E E Q
|-1----0-------|-------3--0--|---------0----|--------------|
|-----------3--|-1-----1-----|----1---------|---------0----|
|-2----0-------|----------0--|---------0----|----1---------|
|-----------3--|-2-----------|----2---------|---------2----|
|--------0--2--|-3--3--3--3--|-3--3--3---3--|----2---------|
|-3--3---------|-------------|--------------|-0--0--0---0--|


                  T
                     |-3-|
  Q  E E E E Q    Q  E E E  E E Q    Q  E E E E Q    Q  Q  E E Q
|-0-------------|------------------|---------------|---------------|
|------0---3----|-1------4-\3-1----|-1--------1----|----5----4-----|
|-1-------------|------2--------2--|------2--------|---------------|
|------2---2----|-3--3-------------|-3----------3--|----5----4-----|
|---------------|------------------|--------3------|-3--3--3---3---|
|-0--0---0---0--|-1----------------|-1--1----------|---------------|


  Q  E E E E Q    Q  Q  E E Q    Q  E E  E E Q    Q  Q  E E Q
|---------------|--------------|----------------|----2----8----|
|-3--------1----|----5----4----|-3---------2----|----1----7----|
|------------0--|----6----5----|-4-----------0--|----2------7--|
|-3----1h2------|----5----4----|-3----1-/2------|-0--0--0------|
|-3--3----------|-0--0--0---0--|-0--0-----------|--------------|
|---------------|--------------|----------------|--------------|


  Q  E   E  E  E  Q    Q  Q  E E Q    Q  E   E  E  E  Q    Q  Q  E E Q
|-7-----------13-----|----2----8----|-7-----------13-----|----2----8----|
|-6--------------12--|----1----7----|-6--------------12--|----1----7----|
|-7--------12--------|----2------7--|-7--------12--------|----2------7--|
|-5--5-/12-----------|-0--0--0------|-5--5-/12-----------|-0--0--0------|
|--------------------|--------------|--------------------|--------------|
|--------------------|--------------|--------------------|--------------|


                       H=10H.=H
  Q  E   E  E  E  Q      E   E  Q   Q   Q    a Q  Q  a H      +W
|-7-----------13-----|------12-----11--10--|-8--------------|--------*|
|-6--------------12--|------11-----10---9--|-8--------------|--------*|
|-7--------12--------|---------12--11--10--|-8h9-------5----|-(5)----*|
|-5--5-/12-----------|--10-----------------|-----------5----|-(5)----*|
|--------------------|---------------------|---------6h7----|-(7)----*|
|--------------------|---------------------|-----------8----|-(8)----*|


Duration Legend
---------------
W - whole; H - half; Q - quarter; E - 8th; S - 16th; T - 32nd; X - 64th; a - acciaccatura
+ - note tied to previous; . - note dotted; .. - note double dotted
Uncapitalized letters represent notes that are staccato (1/2 duration)
Irregular groupings are notated above the duration line
Duration letters will always appear directly above the note/fret number it represents the
duration for.  Duration letters with no fret number below them represent rests.  Multi-
bar rests are notated in the form Wxn, where n is the number of bars to rest for.  Low
melody durations appear below the staff

Tablature Legend
----------------
 h   - hammer-on
 p   - pull-off
 b   - bend
 pb  - pre-bend
 r   - bend release (if no number after the r, then release immediately)
 /\  - slide into or out of (from/to "nowhere")
 s   - legato slide
 S   - shift slide
<n>  - natural harmonic
[n]  - artificial harmonic
n(n) - tapped harmonic
 ~   - vibrato
 tr  - trill
 T   - tap
 TP  - trem. picking
 PM  - palm muting
\n/  - tremolo bar dip; n = amount to dip
 \n  - tremolo bar down
 n/  - tremolo bar up
/n\  - tremolo bar inverted dip
 =   - hold bend; also acts as connecting device for hammers/pulls
 <>  - volume swell (louder/softer)
 x   - on rhythm slash represents muted slash
 o   - on rhythm slash represents single note slash

Misc Legend
-----------
 |  - bar
||  - double bar
||o - repeat start
o|| - repeat end
*|  - double bar (ending)
 :  - bar (freetime)
 $  - Segno
 &  - Coda
Tempo markers - <E/E./Q/Q./H/H.> = BPM(8/16=s8/s16), where s8 = swing 8ths, s16 = swing 16ths
            
Submit corrections


        Limberneck lessons Hard to play? Try these video lessons and learn fast Limberneck lessons
        
↑ Back to top | Tablatures and chords for acoustic guitar and electric guitar, ukulele, drums are parodies/interpretations of the original songs. You may use it for private study, scholarship, research or language learning purposes only