» » »

Bumblefoot - Hands Tabs

Artists:  A B C D E F G H I J K L M N O P Q R S T U V W X Y Z # 

Hands Tabs

(ver. 1) Click to play this song!
Bumblefoot
 Rating:
4/5 (4 votes)

 Hands lessons Tabs too difficult? Try these video lessons and learn fast
 
                HANDS
                            As recorded by Bumblefoot
                           (From the 1998 Album HANDS)

Words and Music by Ron Thal


Gtr I (E A D G B E) - 'Lead Guitar'
Gtr II (D G C F A D) - 'Rhythm Guitar'
Gtr III (E A D G B E) - 'Trombone'
Gtr IV (E A D G B E) - 'Clean Guitar'
Gtr V (E A D G B E) - 'Cello'

 Intro
 4/4
  Gtr I
            ~~~~~                                       ~~~~
   E.  e s  E.    e. S S  S S    E.    s.  s.  s.  E s  E..  S S
|-----------------------------|----------------------------------|
|-----------------------------|----------------------------------|
|-\7--10-7-10b12-10----7-10-7-|-12b14r12--10--12--10-7-10--------|
|-----------------------------|-----------------------------10-7-|
|-----------------------------|----------------------------------|
|-----------------------------|----------------------------------|


     ~                                               ~~~~~~~~
   S E H      e.        e           +T   E..    S S  E  +E   Q.
|-------------------------------|----------------------------------|
|-------------------------------|----------------------------------|
|----7--------------------------|----------------------------------|
|-10----------------------------|----------------------------------|
|-----------[10]b10.5r[10]b10.5r|=([10])-8b8.5r====================|
|-------------------------------|--------------10-8-10-(10)\-------|


            ~~~~~                                       ~~~~
   E.  e s  E.    e. S S  S S    E.    s.  s.  s.  E s  E..  S S
|-----------------------------|----------------------------------|
|-----------------------------|----------------------------------|
|-\7--10-7-10b12-10----7-10-7-|-12b14r12--10--12--10-7-10--------|
|-----------------------------|-----------------------------10-7-|
|-----------------------------|----------------------------------|
|-----------------------------|----------------------------------|
|
| Gtr II
|  W                             W
|-----------------------------|----------------------------------|
|-----------------------------|----------------------------------|
|-----------------------------|----------------------------------|
|-----------------------------|----------------------------------|
|-----------------------------|----------------------------------|
|-----------------------------|----------------------------------|


     ~                                               ~~~~~~~~
   S E H      e.        e           +T   E..    S S  E  +E   Q.
|-------------------------------|------------------------------------------|
|-------------------------------|------------------------------------------|
|----7--------------------------|------------------------------------------|
|-10----------------------------|------------------------------------------|
|-----------[10]b10.5r[10]b10.5r|=([10])-8b8.5r============================|
|-------------------------------|--------------10-8-10-(10)\---------------|
|
|  W                                 H.                          S S S S
|-------------------------------|------------------------------------------|
|-------------------------------|------------------------------------------|
|-------------------------------|------------------------------------------|
|-------------------------------|-------------------------------\xSxSxSx\--|
|-------------------------------|-------------------------------\xSxSxSx\--|
|-------------------------------|-------------------------------\xSxSxSx\--|


 Pre-Verse
  D5                                          D5
                  ~~~~~                                                               ~~~~
   E.      e   s  E.        e.     S S  S S    E.        s.    s.    s.    E     s    E..        S S
|-------------------------------------------|--------------------------------------------------------|
|-------------------------------------------|--------------------------------------------------------|
|-\7------10---7-10b12-----10--------7-10-7-|-12b14r====12----10----12----10-----7---10--------------|
|-------------------------------------------|---------------------------------------------------10-7-|
|-------------------------------------------|--------------------------------------------------------|
|-------------------------------------------|--------------------------------------------------------|
|
|  PM-------------------------------------------------------------------------------------------------
|  s  s S  S S S  S    s s  s  s S S S  S s    s    s S  S  S     S  S  s    s s   s      s s s  s S
|-------------------------------------------|--------------------------------------------------------|
|-------------------------------------------|--------------------------------------------------------|
|-------------------------------------------|--------------------------------------------------------|
|-------------------------------------------|--------------------------------------------------------|
|--2--2----2---2-------2-2--2----2---2----2-|--2----2----2--------2-----2----2-2---2--------2-2--2---|
|--0--0----0---0-------0-0--0----0---0----0-|--0----0----0--------0-----0----0-0---0--------0-0--0---|


  D5
     ~
   S E   H                 e.            e
|--------------------------------------------------|
|--------------------------------------------------|
|----7---------------------------------------------|
|-10-----------------------------------------------|
|------------------------[10]b10.5r====[10]b10.5r==|
|--------------------------------------------------|
|
|------------------------------------------------|
|  s s S S S S S s s s S   S       S S   S       s
|--------------------------------------------------|
|--------------------------------------------------|
|--------------------------------------------------|
|--------------------------------------------------|
|--2-2---2---2---2-2-2-----2---------2-----------2-|
|--0-0---0---0---0-0-0-----0---------0-----------0-|


  D5                                                  D5
                           ~~~~~~~~~~                                 ~~~~~
    +T   E..          S S  E    +E     Q.              E.      e   s  E.        e.     S S  S S
|---------------------------------------------------|-------------------------------------------|
|---------------------------------------------------|-------------------------------------------|
|---------------------------------------------------|-\7------10---7-10b12-----10--------7-10-7-|
|---------------------------------------------------|-------------------------------------------|
|-([10])-8b8.5r=====================================|===========================================|
|--------------------10-8-10---(10)\----------------|-------------------------------------------|
|
|    PM------------------------------------------------------------------------------------------
|    s         s S S  S S  S s   s   s s  s s s s S    s  s S  S S S  S    s s  s  S S S S  S s
|---------------------------------------------------|-------------------------------------------|
|---------------------------------------------------|-------------------------------------------|
|---------------------------------------------------|-------------------------------------------|
|---------------------------------------------------|-------------------------------------------|
|----2---------2---2----2----2---2---2-2----2-2-2---|--2--2----2---2-------2-2--2----2---2----2-|
|----0---------0---0----0----0---0---0-0----0-0-0---|--0--0----0---0-------0-0--0----0---0----0-|


  D5
                                          ~~~~
   E.        s.    s.    s.    E     s    E..        S S
|-----------------------------------------------------------|
|-----------------------------------------------------------|
|-12b14r====12----10----12----10-----7---10-----------------|
|---------------------------------------------------10-7----|
|-----------------------------------------------------------|
|-----------------------------------------------------------|
|
|------------------------------------------------------|
|  s    s s  S  S     S  S  s    s s   s      s s s  s S
|-----------------------------------------------------------|
|-----------------------------------------------------------|
|-----------------------------------------------------------|
|-----------------------------------------------------------|
|--2----2----2--------2-----2----2-2---2--------2-2--2------|
|--0----0----0--------0-----0----0-0---0--------0-0--0------|


  D5
     ~
   S E   H                 e.            e
|--------------------------------------------------|
|--------------------------------------------------|
|----7---------------------------------------------|
|-10-----------------------------------------------|
|------------------------[10]b10.5r====[10]b10.5r==|
|--------------------------------------------------|
|
|  PM-----------------------------------------------
|  s s S S S S S s s s S   S       S S   S       s
|--------------------------------------------------|
|--------------------------------------------------|
|--------------------------------------------------|
|--------------------------------------------------|
|--2-2---2---2---2-2-2-----2---------2-----------2-|
|--0-0---0---0---0-0-0-----0---------0-----------0-|


  D5
                           ~~~~~~~~~~
    +T   E..          S S  E    +E     Q.        W
|----------------------------------------------|------|
|----------------------------------------------|------|
|----------------------------------------------|------|
|----------------------------------------------|------|
|-([10])-8b8.5r================================|======|
|--------------------10-8-10---(10)\-----------|------|
|
|-------------------------------------------|
|    s         s s S  S S  S s   s   s s  s Q    W
|----------------------------------------------|------|
|----------------------------------------------|------|
|----------------------------------------------|------|
|----------------------------------------------|------|
|----2---------2---2----2----2---2---2-2----2--|------|
|----0---------0---0----0----0---0---0-0----0--|------|


  D5
  Gtr II
  >
  W          +W           +W           +W
|----------|------------|------------|--------|
|----------|------------|------------|--------|
|----------|------------|------------|--------|
|----------|------------|------------|--------|
|-2--------|-(2)--------|-(2)--------|-(2)----|
|-0--------|-(0)--------|-(0)--------|-(0)----|


  D5
  +W           +W           +W           +W
|------------|------------|------------|--------|
|------------|------------|------------|--------|
|------------|------------|------------|--------|
|------------|------------|------------|--------|
|-(2)--------|-(2)--------|-(2)--------|-(2)----|
|-(0)--------|-(0)--------|-(0)--------|-(0)----|


   Verse
    Bm          Bb          Amaj7sus4   Gm9
    Gtr IV
     W           W           W           W
||--^7--------|-^6--------|-^5--------|-^5----|
||o-^7--------|-^6--------|-^8--------|-^6----|
||--^7--------|-^7--------|-^7--------|-^7----|
||--^9--------|-^8--------|-^7--------|-^5----|
||o-----------|-----------|-----------|-------|
||------------|-----------|-----------|-------|


  Fb5               E
                                ~~~~~~~~~~~~~~~
  |-3-|
  Q Q Q Q    +Q      W          W          +W
|-----------------|-----------|----------|---------||
|-----0-----------|-^0--------|----------|--------o||
|---2---2b3r=(2)--|-^1--------|----------|---------||
|-3---------------|-^2--------|----------|---------||
|-----------------|-----------|-5--------|-(5)----o||
|-----------------|-----------|----------|---------||


  Gtr III
                   ~~~~~~~~                             ~~~~~~~~
       |--5:6--|                            |--5:6--|
  H    s s. s. s S S   +E  H..         H    s s. s. s S S   +E  H..
|--------------------|---------------|--------------------|------------|
|--------------------|---------------|--------------------|------------|
|--------------------|---------------|--------------------|------------|
|------7-7--7--7-6-7-|-(7)-----------|------7-7--7--7-6-7-|-(7)--------|
|--------------------|---------------|--------------------|------------|
|--------------------|---------------|--------------------|------------|


                   ~~~~~~~~
       |--5:6--|
  H    s s. s. s S S   +E  H..
|--------------------|---------------|
|--------------------|---------------|
|--------------------|---------------|
|------7-7--7--7-6-7-|-(7)-----------|
|--------------------|---------------|
|--------------------|---------------|
|
| Gtr II
| W                     W
|--------------------|---------------|
|--------------------|---------------|
|--------------------|---------------|
|--------------------|---------------|
|--------------------|---------------|
|--------------------|---------------|


                                          A5
                   ~~~~~~~~
       |--5:6--|
  H    s s. s. s S S   +E  H..
|--------------------|--------------------------|
|--------------------|--------------------------|
|--------------------|--------------------------|
|------7-7--7--7-6-7-|-(7)----------------------|
|--------------------|--------------------------|
|--------------------|--------------------------|
|
|                                 <
| W                     H         Q    E.   S
|--------------------|--------------------------|
|--------------------|--------------------------|
|--------------------|--------------------------|
|--------------------|----------------<8>-(<8>)-|
|--------------------|-----------<8>-------(9)S=|
|--------------------|---------------------(7)S=|


 Chorus
  B5                    F#sus4         A5
  Gtr II
   E.  E.  E.  E.  Q    E. E. E. E. E.  S
|---------------------|--------------------|
|---------------------|--------------------|
|---------------------|--------------------|
|---------------------|--------------------|
|-11--11--11--11--11--|-4--4--4--4--4--(9)S|
|--9---9---9---9---9--|-4--4--4--4--4--(7)S|


  B5                      A5    G#5
   E.  E.  E.  E.  E. S   E. E. E. E. E. S
|-----------------------|------------------|
|-----------------------|------------------|
|-----------------------|------------------|
|-----------------------|------------------|
|-11--11--11--11--11--x-|-9--9--8--8--8--x-|
|--9---9---9---9---9--x-|-7--7--6--6--6--x-|


  G5               F#m6             F5               Em6            A5
  E. E. E. E. Q    E. E. E. E. Q    E. E. E. E. Q    E. E. E. E. E.  S
|----------------|----------------|----------------|---------------------|
|----------------|----------------|----------------|---------------------|
|----------------|----------------|----------------|---------------------|
|----------------|----------------|----------------|---------------------|
|-7--7--7--7--7--|-7--7--7--7--7--|-5--5--5--5--5--|-5--5--5--5--5--(9)S=|
|-5--5--5--5--5--|-4--4--4--4--4--|-3--3--3--3--3--|-2--2--2--2--2--(7)S=|


  B5                    F#sus4        A5
   E.  E.  E.  E.  Q    E. E. E. E. E  E
|---------------------|-------------------|
|---------------------|-------------------|
|---------------------|-------------------|
|---------------------|-------------------|
|-11--11--11--11--11--|-4--4--4--4--4-(9)S|
|--9---9---9---9---9--|-4--4--4--4--4-(7)S|


  B5                      A5    G#5
   E.  E.  E.  E.  E. S   E. E. E. E. E. S
|-----------------------|------------------|
|-----------------------|------------------|
|-----------------------|------------------|
|-----------------------|------------------|
|-11--11--11--11--11--x-|-9--9--8--8--8--x-|
|--9---9---9---9---9--x-|-7--7--6--6--6--x-|


  G5               F#m6             F5
                                                    6/4
                                                              >
                                                      ~~~~~~~~~~~~
  E. E. E. E. Q    E. E. E. E. Q    E. E. E. E. Q     H      +W
|----------------|----------------|----------------|-----------------|
|----------------|----------------|----------------|-----------------|
|----------------|----------------|----------------|-----------------|
|----------------|----------------|----------------|-[4]----([4])----|
|-7--7--7--7--7--|-7--7--7--7--7--|-5--5--5--5--5--|-----------------|
|-5--5--5--5--5--|-4--4--4--4--4--|-3--3--3--3--3--|-----------------|


 Interlude
 4/4
  Gtr I
            ~~~~~                                       ~~~~
   E.  e s  E.    e. S S  S S    E.    s.  s.  s.  E s  E..  S S
|-----------------------------|----------------------------------|
|-----------------------------|----------------------------------|
|-\7--10-7-10b12-10----7-10-7-|-12b14r12--10--12--10-7-10--------|
|-----------------------------|-----------------------------10-7-|
|-----------------------------|----------------------------------|
|-----------------------------|----------------------------------|


     ~                                               ~~~~~~~~
   S E H      e.        e           +T   E..    S S  E  +E   Q.
|-------------------------------|----------------------------------|
|-------------------------------|----------------------------------|
|----7--------------------------|----------------------------------|
|-10----------------------------|----------------------------------|
|-----------[10]b10.5r[10]b10.5r|=([10])-8b8.5r====================|
|-------------------------------|--------------10-8-10-(10)\-------|


            ~~~~~                                       ~~~~
   E.  e s  E.    e. S S  S S    E.    s.  s.  s.  E s  E..  S S
|-----------------------------|----------------------------------|
|-----------------------------|----------------------------------|
|-\7--10-7-10b12-10----7-10-7-|-12b14r12--10--12--10-7-10--------|
|-----------------------------|-----------------------------10-7-|
|-----------------------------|----------------------------------|
|-----------------------------|----------------------------------|
|
| Gtr II
|  W                             W
|-----------------------------|----------------------------------|
|-----------------------------|----------------------------------|
|-----------------------------|----------------------------------|
|-----------------------------|----------------------------------|
|-----------------------------|----------------------------------|
|-----------------------------|----------------------------------|


     ~                                               ~~~~~~~~
   S E H      e.        e           +T   E..    S S  E  +E   Q.
|-------------------------------|------------------------------------------|
|-------------------------------|------------------------------------------|
|----7--------------------------|------------------------------------------|
|-10----------------------------|------------------------------------------|
|-----------[10]b10.5r[10]b10.5r|=([10])-8b8.5r============================|
|-------------------------------|--------------10-8-10-(10)\---------------|
|
|  W                                 H.                          S S S S
|-------------------------------|------------------------------------------|
|-------------------------------|------------------------------------------|
|-------------------------------|------------------------------------------|
|-------------------------------|-------------------------------\xSxSxSx\--|
|-------------------------------|-------------------------------\xSxSxSx\--|
|-------------------------------|-------------------------------\xSxSxSx\--|


 Pre-Verse
  D5                                          D5
                  ~~~~~                                                               ~~~~
   E.      e   s  E.        e.     S S  S S    E.        s.    s.    s.    E     s    E..        S S
|-------------------------------------------|--------------------------------------------------------|
|-------------------------------------------|--------------------------------------------------------|
|-\7------10---7-10b12-----10--------7-10-7-|-12b14r====12----10----12----10-----7---10--------------|
|-------------------------------------------|---------------------------------------------------10-7-|
|-------------------------------------------|--------------------------------------------------------|
|-------------------------------------------|--------------------------------------------------------|
|
|  PM-------------------------------------------------------------------------------------------------
|  s  s S  S S S  S    s s  s  s S S S  S s    s    s S  S  S     S  S  s    s s   s      s s s  s S
|-------------------------------------------|--------------------------------------------------------|
|-------------------------------------------|--------------------------------------------------------|
|-------------------------------------------|--------------------------------------------------------|
|-------------------------------------------|--------------------------------------------------------|
|--2--2----2---2-------2-2--2----2---2----2-|--2----2----2--------2-----2----2-2---2--------2-2--2---|
|--0--0----0---0-------0-0--0----0---0----0-|--0----0----0--------0-----0----0-0---0--------0-0--0---|


  D5
     ~
   S E   H                 e.            e
|--------------------------------------------------|
|--------------------------------------------------|
|----7---------------------------------------------|
|-10-----------------------------------------------|
|------------------------[10]b10.5r====[10]b10.5r==|
|--------------------------------------------------|
|
|------------------------------------------------|
|  s s S S S S S s s s S   S       S S   S       s
|--------------------------------------------------|
|--------------------------------------------------|
|--------------------------------------------------|
|--------------------------------------------------|
|--2-2---2---2---2-2-2-----2---------2-----------2-|
|--0-0---0---0---0-0-0-----0---------0-----------0-|


  D5                                                  D5
                           ~~~~~~~~~~                                 ~~~~~
    +T   E..          S S  E    +E     Q.              E.      e   s  E.        e.     S S  S S
|---------------------------------------------------|-------------------------------------------|
|---------------------------------------------------|-------------------------------------------|
|---------------------------------------------------|-\7------10---7-10b12-----10--------7-10-7-|
|---------------------------------------------------|-------------------------------------------|
|-([10])-8b8.5r=====================================|===========================================|
|--------------------10-8-10---(10)\----------------|-------------------------------------------|
|
|    PM------------------------------------------------------------------------------------------
|    s         s S S  S S  S s   s   s s  s s s s S    s  s S  S S S  S    s s  s  S S S S  S s
|---------------------------------------------------|-------------------------------------------|
|---------------------------------------------------|-------------------------------------------|
|---------------------------------------------------|-------------------------------------------|
|---------------------------------------------------|-------------------------------------------|
|----2---------2---2----2----2---2---2-2----2-2-2---|--2--2----2---2-------2-2--2----2---2----2-|
|----0---------0---0----0----0---0---0-0----0-0-0---|--0--0----0---0-------0-0--0----0---0----0-|


  D5
                                          ~~~~
   E.        s.    s.    s.    E     s    E..        S S
|-----------------------------------------------------------|
|-----------------------------------------------------------|
|-12b14r====12----10----12----10-----7---10-----------------|
|---------------------------------------------------10-7----|
|-----------------------------------------------------------|
|-----------------------------------------------------------|
|
|------------------------------------------------------|
|  s    s s  S  S     S  S  s    s s   s      s s s  s S
|-----------------------------------------------------------|
|-----------------------------------------------------------|
|-----------------------------------------------------------|
|-----------------------------------------------------------|
|--2----2----2--------2-----2----2-2---2--------2-2--2------|
|--0----0----0--------0-----0----0-0---0--------0-0--0------|


  D5
     ~
   S E   H                 e.            e
|--------------------------------------------------|
|--------------------------------------------------|
|----7---------------------------------------------|
|-10-----------------------------------------------|
|------------------------[10]b10.5r====[10]b10.5r==|
|--------------------------------------------------|
|
|  PM-----------------------------------------------
|  s s S S S S S s s s S   S       S S   S       s
|--------------------------------------------------|
|--------------------------------------------------|
|--------------------------------------------------|
|--------------------------------------------------|
|--2-2---2---2---2-2-2-----2---------2-----------2-|
|--0-0---0---0---0-0-0-----0---------0-----------0-|


  D5
                                                3/4
                           ~~~~~~~~~~
    +T   E..          S S  E    +E     Q.        H.
|----------------------------------------------|-------|
|----------------------------------------------|-------|
|----------------------------------------------|-------|
|----------------------------------------------|-------|
|-([10])-8b8.5r================================|=======|
|--------------------10-8-10---(10)\-----------|-------|
|
|-------------------------------------------|
|    s         s s S  S S  S s   s   s s  s Q    H.
|----------------------------------------------|-------|
|----------------------------------------------|-------|
|----------------------------------------------|-------|
|----------------------------------------------|-------|
|----2---------2---2----2----2---2---2-2----2--|-------|
|----0---------0---0----0----0---0---0-0----0--|-------|


 Verse
  Bm          Bb          Amaj7sus4   Gm9
 4/4
  Gtr IV
   W           W           W           W
|-^7--------|-^6--------|-^5--------|-^5----|
|-^7--------|-^6--------|-^8--------|-^6----|
|-^7--------|-^7--------|-^7--------|-^7----|
|-^9--------|-^8--------|-^7--------|-^5----|
|-----------|-----------|-----------|-------|
|-----------|-----------|-----------|-------|


  Fb5               E
                                ~~~~~~~~~~~~~~~
  |-3-|
  Q Q Q Q    +Q      W          W          +W
|-----------------|-----------|----------|--------|
|-----0-----------|-^0--------|----------|--------|
|---2---2b3r=(2)--|-^1--------|----------|--------|
|-3---------------|-^2--------|----------|--------|
|-----------------|-----------|-5--------|-(5)----|
|-----------------|-----------|----------|--------|


  Bm          Bb          Amaj7sus4   Gm9
   W           W           W           W
|-^7--------|-^6--------|-^5--------|-^5----|
|-^7--------|-^6--------|-^8--------|-^6----|
|-^7--------|-^7--------|-^7--------|-^7----|
|-^9--------|-^8--------|-^7--------|-^5----|
|-----------|-----------|-----------|-------|
|-----------|-----------|-----------|-------|


  Fb5                E                             B5
                                 ~~~~~~~~~~~~~~~
  |-3-|
  Q Q Q Q    +Q       W          W          +W
|------------------|-----------|----------|--------------|
|-----0------------|-^0--------|----------|--------------|
|---2---2b3r=(2)---|-^1--------|----------|--------------|
|-3----------------|-^2--------|----------|--------------|
|------------------|-----------|-5--------|-(5)----------|
|------------------|-----------|----------|--------------|
|
| Gtr II
|                                                   <
| W                   W          W           H      H
|------------------|-----------|----------|--------------|
|------------------|-----------|----------|--------------|
|------------------|-----------|----------|--------------|
|------------------|-----------|----------|--------------|
|------------------|-----------|----------|--------11----|
|------------------|-----------|----------|---------9----|


 Chorus
  B5                    F#sus4         A5
  Gtr II
   E.  E.  E.  E.  Q    E. E. E. E. E.  S
|---------------------|--------------------|
|---------------------|--------------------|
|---------------------|--------------------|
|---------------------|--------------------|
|-11--11--11--11--11--|-4--4--4--4--4--(9)S|
|--9---9---9---9---9--|-4--4--4--4--4--(7)S|


  B5                      A5    G#5
   E.  E.  E.  E.  E. S   E. E. E. E. E. S
|-----------------------|------------------|
|-----------------------|------------------|
|-----------------------|------------------|
|-----------------------|------------------|
|-11--11--11--11--11--x-|-9--9--8--8--8--x-|
|--9---9---9---9---9--x-|-7--7--6--6--6--x-|


  G5               F#m6             F5               Em6            A5
  E. E. E. E. Q    E. E. E. E. Q    E. E. E. E. Q    E. E. E. E. E.  S
|----------------|----------------|----------------|---------------------|
|----------------|----------------|----------------|---------------------|
|----------------|----------------|----------------|---------------------|
|----------------|----------------|----------------|---------------------|
|-7--7--7--7--7--|-7--7--7--7--7--|-5--5--5--5--5--|-5--5--5--5--5--(9)S=|
|-5--5--5--5--5--|-4--4--4--4--4--|-3--3--3--3--3--|-2--2--2--2--2--(7)S=|


  B5                    F#sus4        A5
   E.  E.  E.  E.  Q    E. E. E. E. E  E
|---------------------|-------------------|
|---------------------|-------------------|
|---------------------|-------------------|
|---------------------|-------------------|
|-11--11--11--11--11--|-4--4--4--4--4-(9)S|
|--9---9---9---9---9--|-4--4--4--4--4-(7)S|


  B5                      A5    G#5
   E.  E.  E.  E.  E. S   E. E. E. E. E. S
|-----------------------|------------------|
|-----------------------|------------------|
|-----------------------|------------------|
|-----------------------|------------------|
|-11--11--11--11--11--x-|-9--9--8--8--8--x-|
|--9---9---9---9---9--x-|-7--7--6--6--6--x-|


  G5               F#m6             F5
                                                    6/4
                                                     ~~
  E. E. E. E. Q    E. E. E. E. Q    E. E. E. E. Q    W.
|----------------|----------------|----------------|-------|
|----------------|----------------|----------------|-------|
|----------------|----------------|----------------|-------|
|----------------|----------------|----------------|-------|
|-7--7--7--7--7--|-7--7--7--7--7--|-5--5--5--5--5--|-------|
|-5--5--5--5--5--|-4--4--4--4--4--|-3--3--3--3--3--|-2-----|


 Guitar Solo
  B5
 4/4
  Gtr II
    E.            E.  H         +E
|----------------------------------------|
|----------------------------------------|
|----------------------------------------|
|----------------------------------------|
|-/11------------11--11--------(11)------|
|--/9-------------9---9---------(9)------|
|
| Gtr I
|                 ~~~~~~~~~~~~~~~~~~~~~~~~
|   |---6:3---|
|   S S S S S S   Q      +H          +S
|--10p9p7S6S7-9-/14-----(14)--------(14)-|
|----------------------------------------|
|----------------------------------------|
|----------------------------------------|
|----------------------------------------|
|----------------------------------------|


                                                   B5
    ~~~~~~~~~~~~~~~~~~~~~~~~~~~~~~~~~
    Q.     E.         E.           Q                 E.  E.        H             +E
|------------------------------------------------|---------------------------------------|
|------------------------------------------------|---------------------------------------|
|------------------------------------------------|---------------------------------------|
|------------------------------------------------|---------------------------------------|
|------------------------------------------------|-/11--11--------11------------(11)-----|
|--/9----/12--------\11-----------\9-------------|--/9---9---------9-------------(9)-----|
|
|~~~~~~                               ~~~~~~~~~~~~~~~~~~
|                                                                                 |-3-|
|  +Q.     e     S.       S  S  S     E      +S.    +Q       +E    Q.       S S   S S S
|-(14)----14b16r14-------12----12----12b14==(12)-|-(12)-----(12)r------------------------|
|---------------------------15-------------------|----------------12pb14r==10p7----------|
|------------------------------------------------|--------------------------------9p7p6--|
|------------------------------------------------|---------------------------------------|
|------------------------------------------------|---------------------------------------|
|------------------------------------------------|---------------------------------------|


  A5                                                            G5
         ~~~~~~~~~~~~~~~~~~~~~~~~~~~~~~~~~~~~~~~~~~~~~~~~
    E.   E.                H                         +E           E. E. H              +E
|-------------------------------------------------------------|----------------------------|
|-------------------------------------------------------------|----------------------------|
|-------------------------------------------------------------|----------------------------|
|-------------------------------------------------------------|----------------------------|
|--\9---------------------------------------------------------|---7--7--7--------------(7)-|
|--\7--/11---------------\10-------------------------(8)------|---5--5--5--------------(5)-|
|
|                                                                 ~~~~~~~~~~~~~
|                                   |---3----|        |--3--|
|   e.   S       S   +S   +E    E.  S  S     S  S     S  S  S     H        +E   E.  E.
|----------------9---(9)-----------15-------15----------------|-/19-------(19)-21--22------|
|-/10---12b14==(12)-(12)r(12)-/12-----17b19----19b20-20p19p17-|----------------------------|
|-------------------------------------------------------------|----------------------------|
|-------------------------------------------------------------|----------------------------|
|-------------------------------------------------------------|----------------------------|
|-------------------------------------------------------------|----------------------------|


  F#m6                F5
    E.  E. H    +E     E.         E.      H                +E
|-------------------|--------------------------------------------|
|-------------------|--------------------------------------------|
|-------------------|--------------------------------------------|
|-------------------|--------------------------------------------|
|---7---7--7----(7)-|--5----------5-------5----------------(5)---|
|---4---4--4----(4)-|--3----------3-------3----------------(3)---|
|
|                      /1\             \2
|   ~~~~~
|   H..          E     E      +E      +Q    E.  S.    +S.   E
|-\17-----------14--|-17b19==(17)----(17)------14b16r(14)-[14]---|
|-------------------|--------------------------------------------|
|-------------------|--------------------------------------------|
|-------------------|--------------------------------------------|
|-------------------|--------------------------------------------|
|-------------------|--------------------------------------------|


  Emaj7sus4                                                 A5
   Q.                            E.          E.      E.      S
|---------------------------------------------------------------|
|---------------------------------------------------------------|
|--------------------------------------------4------------------|
|--------------------------------3-------------------3----------|
|--4--------------------------------------------------------(9)S|
|--2--------------------------------------------------------(7)S|
|
|  T            T  T                                      PM|
|                                |--3---|
|  T   T  T  T  T  T  T  T  +E   S   S  S  E     E   S  S S  S
|-21--20----------------21-(21)-19------------------------------|
|-----------------20----------------18----20--------[8]p7-5-----|
|--------17----------18----------------17-------19\----------7--|
|-----------18-19-----------------------------------------------|
|---------------------------------------------------------------|
|---------------------------------------------------------------|


  B5                                 F#sus4                     A5
    E.   E.  E.      E.      Q        E. E.          E. E.   E.  S
|----------------------------------|----------------------------------|
|----------------------------------|----------------------------------|
|----------------------------------|----------------------------------|
|----------------------------------|----------------------------------|
|--11---11--11------11------11-----|--4--4-----------4--4----4--(9)S==|
|---9----9---9-------9-------9-----|--4--4-----------4--4----4--(7)S==|
|
|   ~~~~~                             ~~~                    ~~~~
|   Q..          E.      E.     E.    Q      s  Q..         +E.  S
|----------------------------------|-12--------14b18r======(14)-------|
|---------------12------14-----15--|--------12------------------15----|
|-/11------------------------------|----------------------------------|
|----------------------------------|----------------------------------|
|----------------------------------|----------------------------------|
|----------------------------------|----------------------------------|


  B5                              A5                   G#5
    E.  E.  E.  E.  E.        S     E.    E.             E. E.  E.       S
|-------------------------------|-------------------------------------------|
|-------------------------------|-------------------------------------------|
|-------------------------------|-------------------------------------------|
|-------------------------------|-------------------------------------------|
|--11--11--11--11--11---------x-|---9-----9--------------8--8---8--------x--|
|---9---9---9---9---9---------x-|---7-----7--------------6--6---6--------x--|
|
|   \2
|                                   ~~~~~~~              ~~~~
|   H.              S   S  S  S     Q         +S   +S    Q.     S S   S  S
|-------------------------------|--19b22=====(19)r(19)h[20]-----------------|
|-[16]-----------------17-18-19-|-------------------------------------------|
|-------------------------------|-------------------------------------------|
|-------------------------------|------------------------------\xSxS==xS=x\-|
|-------------------------------|------------------------------\xSxS==xS=x\-|
|-------------------------------|------------------------------\xSxS==xS=x\-|
|
| Gtr V
|                                   ~~~~~~~~~~~~~~~~~~~~~~~~~~~~~~~~~~~~~~~~~
|   W                               Q.                   H           +E
|-------------------------------|-------------------------------------------|
|-------------------------------|-------------------------------------------|
|-------------------------------|-------------------------------------------|
|-------------------------------|-/11------------------\10----------(10)----|
|-------------------------------|-------------------------------------------|
|-------------------------------|-------------------------------------------|


  G5                         F#m6
   E.  E. E.   E.    Q         E.  E. E.    E.     Q
|--------------------------|-------------------------------|
|--------------------------|-------------------------------|
|--------------------------|-------------------------------|
|--------------------------|-------------------------------|
|--7---7--7----7-----7-----|---7---7--7-----7------7-------|
|--5---5--5----5-----5-----|---4---4--4-----4------4-------|
|
|  ~~~~                        ~~~~~
|  Q..       E.   E.     E.    Q..        E.    E.     E.
|--------------------------|-------------/9h===10----/19---|
|----------------------/12p|==10---------------------------|
|------------6h===7--------|-------------------------------|
|-/9-----------------------|-------------------------------|
|--------------------------|-------------------------------|
|--------------------------|-------------------------------|
|
|                              >
|~~~~~~~~~~~~~~~~~~~~~~~~~~~~~~~~~~
|  W                           W
|--------------------------|-------------------------------|
|--------------------------|-------------------------------|
|--------------------------|-------------------------------|
|-\9-----------------------|-/12---------------------------|
|--------------------------|-------------------------------|
|--------------------------|-------------------------------|


  F5
    E. E.                  E.         E.                Q
|----------------------------------------------------------------------------------|
|----------------------------------------------------------------------------------|
|----------------------------------------------------------------------------------|
|----------------------------------------------------------------------------------|
|---5--5-------------------5----------5-----------------5--------------------------|
|---3--3-------------------3----------3-----------------3--------------------------|
|
|   ~~~~                        T           T           T  T               T  T  T
|                                                                 |------6-------|
|   Q      +S     S       +E    T  T  T  T  T  T  T  T  S  S      T  T  T  T  T  T
|--19-----(19)\--------------------------------------------------12h14h15-17-19-17-|
|---------------[20]b21r([20])-------------17-------------15b17/-------------------|
|---------------------------------------------10h12h14-16--------------------------|
|------------------------------16-11h12h14-----------------------------------------|
|----------------------------------------------------------------------------------|
|----------------------------------------------------------------------------------|
|
|   ~~~~
|  +W
|----------------------------------------------------------------------------------|
|----------------------------------------------------------------------------------|
|----------------------------------------------------------------------------------|
|-(12)-----------------------------------------------------------------------------|
|----------------------------------------------------------------------------------|
|----------------------------------------------------------------------------------|


  Em6                                                                                                            A5
   E.                         E.                        E.                      E.                   E.           S
|---------------------------------------------------------------------------------------------------------------------------|
|---------------------------------------------------------------------------------------------------------------------------|
|---------------------------------------------------------------------------------------------------------------------------|
|---------------------------------------------------------------------------------------------------------------------------|
|--5--------------------------5-------------------------5-----------------------5--------------------5-----------(9)S=======|
|--2--------------------------2-------------------------2-----------------------2--------------------2-----------(7)S=======|
|
|                    T  T  T                   T  T  T                 T  T  T               T  T  T
|  |------6-------|  |------6-------| |------6-------|  |-----6-----|  |-----6------| |-----6------|       |-3-|
|  T  T  T  T  T  T  T  T  T  T  T  T T  T  T  T  T  T  T  T T T T  T  T  T  T  T T T T T T  T  T  T T T T S S S     +T
|-15p14p12S10h12h14-15-17-15-14p12p10S9h10h12-14-15-14-12p10p9S7h9h10-12-14-12-10p9p7S5h7h9-10-12-10-9p7p5------------------|
|----------------------------------------------------------------------------------------------------------8p7p5-----(5)----|
|---------------------------------------------------------------------------------------------------------------------------|
|---------------------------------------------------------------------------------------------------------------------------|
|---------------------------------------------------------------------------------------------------------------------------|
|---------------------------------------------------------------------------------------------------------------------------|
|
|  W
|---------------------------------------------------------------------------------------------------------------------------|
|---------------------------------------------------------------------------------------------------------------------------|
|---------------------------------------------------------------------------------------------------------------------------|
|---------------------------------------------------------------------------------------------------------------------------|
|---------------------------------------------------------------------------------------------------------------------------|
|---------------------------------------------------------------------------------------------------------------------------|


  B5                           F#sus4                                                                 A5
    E.  E.   E.  E.  Q          E. E.         E.             E.                E.                      S
|----------------------------|-------------------------------------------------------------------------------|
|----------------------------|-------------------------------------------------------------------------------|
|----------------------------|-------------------------------------------------------------------------------|
|----------------------------|-------------------------------------------------------------------------------|
|--11--11---11--11--11-------|--4--4----------4--------------4-----------------4----------------------(9)S===|
|---9---9----9---9---9-------|--4--4----------4--------------4-----------------4----------------------(7)S===|
|
|   ~~~~~~~~~~~~                ~~~               T  T                T  T                 T     T
|                                      |------5------|
|   Q.       Q.      e  E       Q      S S  S     S  S T  T  T  T  T  T  T  T  T  T  T  T  X  X  X  X  T   T
|----------------------------|---------------------------------------------12S14h15h17h19-21-19-21-19p17p=15-|
|-/14------\12---------14b16-|-14----------------------------------------------------------------------------|
|-------------------11-------|-----------9h12----14S16-9S11h12h14h16-17-19-----------------------------------|
|----------------------------|--------11---------------------------------------------------------------------|
|----------------------------|-------------------------------------------------------------------------------|
|----------------------------|-------------------------------------------------------------------------------|


  B5
    E.  E.  E.    E.       E. S
|-------------------------------|
|-------------------------------|
|-------------------------------|
|-------------------------------|
|--11--11--11----11-------11--x-|
|---9---9---9-----9--------9--x-|
|
|   ~~~~               ~~~~
|   Q.      Q          Q.
|-/19------21b23-----[21]-------|
|-------------------------------|
|-------------------------------|
|-------------------------------|
|-------------------------------|
|-------------------------------|


  A5                             G#5
  E.              E.             E.              E.             E.    S
|-----------------------------------------------------------------------|
|-----------------------------------------------------------------------|
|-----------------------------------------------------------------------|
|-----------------------------------------------------------------------|
|-9---------------9--------------8---------------8--------------8-----x-|
|-7---------------7--------------6---------------6--------------6-----x-|
|
|              T  T  T                        T  T  T
| T T T  T  T  T  T  T  T  T T T T T T  T  T  T  T  T  T  T T T S  E.
|-5S7h9h10h12-14S17S14-12p10p9p7S5S7h9h10h12-14S17S14-12p10p9p7S5-------|
|-----------------------------------------------------------------------|
|------------------------------------------------------------------9\---|
|------------------------------------------------------------------9\---|
|-----------------------------------------------------------------------|
|-----------------------------------------------------------------------|


  G5
   E.                      E.                    E.                      E.                    Q
|----------------------------------------------------------------------------------------------------------------------------|
|----------------------------------------------------------------------------------------------------------------------------|
|----------------------------------------------------------------------------------------------------------------------------|
|----------------------------------------------------------------------------------------------------------------------------|
|--7-----------------------7---------------------7-----------------------7---------------------7-----------------------------|
|--5-----------------------5---------------------5-----------------------5---------------------5-----------------------------|
|
|  T      T           T        T     T           T      T           T        T     T           T     T           T
|  |--3---|           |----------8:7----------|  |--3---|           |----------8:7----------|  |--3--|           |--4:3---|
|  T   T  T  T  T  T  T  T     T  T  T  T  T  T  T   T  T  T  T  T  T  T     T  T  T  T  T  T  T  T  T  T  T  T  T  T  T  T
|-15--14-15-14p12p10----------------------------15--14-15-14p12p10----------------------------15-14-15-14p12p10--------------|
|----------------------------------------------------------------------------------------------------------------------------|
|--------------------16-14----16-14-16-14p12p11--------------------16-14----16-14-16-14p12p11-------------------16-14p12p11--|
|----------------------------------------------------------------------------------------------------------------------------|
|----------------------------------------------------------------------------------------------------------------------------|
|----------------------------------------------------------------------------------------------------------------------------|


  F#m6
   E.                      E.                   E.                      E.                   Q
|-------------------------------------------------------------------------------------------------------------------------|
|-------------------------------------------------------------------------------------------------------------------------|
|-------------------------------------------------------------------------------------------------------------------------|
|-------------------------------------------------------------------------------------------------------------------------|
|--7-----------------------7--------------------7-----------------------7--------------------7----------------------------|
|--4-----------------------4--------------------4-----------------------4--------------------4----------------------------|
|
|  T      T           T        T     T          T      T           T        T     T          T     T           T
|  |--3---|           |---------8:7----------|  |--3---|           |---------8:7----------|  |--3--|           |--4:3--|
|  T   T  T  T  T  T  T  T     T  T  T  T  T T  T   T  T  T  T  T  T  T     T  T  T  T  T T  T  T  T  T  T  T  T  T  T T
|-15--14-15-14p12p10---------------------------15--14-15-14p12p10---------------------------15-14-15-14p12p10-------------|
|-------------------------------------------------------------------------------------------------------------------------|
|--------------------14-12----14-12-14-12p11p9--------------------14-12----14-12-14-12p11p9-------------------14-12p11p9--|
|-------------------------------------------------------------------------------------------------------------------------|
|-------------------------------------------------------------------------------------------------------------------------|
|-------------------------------------------------------------------------------------------------------------------------|


  F5
   E.                      E.                    E.                      E.                    Q
|----------------------------------------------------------------------------------------------------------------------------|
|----------------------------------------------------------------------------------------------------------------------------|
|----------------------------------------------------------------------------------------------------------------------------|
|----------------------------------------------------------------------------------------------------------------------------|
|--5-----------------------5---------------------5-----------------------5---------------------5-----------------------------|
|--3-----------------------3---------------------3-----------------------3---------------------3-----------------------------|
|
|  T      T           T        T     T           T      T           T        T     T           T     T           T
|  |--3---|           |----------8:7----------|  |--3---|           |----------8:7----------|  |--3--|           |--4:3---|
|  T   T  T  T  T  T  T  T     T  T  T  T  T  T  T   T  T  T  T  T  T  T     T  T  T  T  T  T  T  T  T  T  T  T  T  T  T  T
|-19--14-19-14p12p10----------------------------19--14-19-14p12p10----------------------------19-14-19-14p12p10--------------|
|----------------------------------------------------------------------------------------------------------------------------|
|--------------------16-14----16-14-16-14p12p11--------------------16-14----16-14-16-14p12p11-------------------16-14p12p11--|
|----------------------------------------------------------------------------------------------------------------------------|
|----------------------------------------------------------------------------------------------------------------------------|
|----------------------------------------------------------------------------------------------------------------------------|


  Em6
   E.                      E.                    E.                      E.                    Q
|------------------------------------------------------------------------------------------------------------------------------------|
|------------------------------------------------------------------------------------------------------------------------------------|
|------------------------------------------------------------------------------------------------------------------------------------|
|------------------------------------------------------------------------------------------------------------------------------------|
|--5-----------------------5---------------------5-----------------------5---------------------5-------------------------------------|
|--2-----------------------2---------------------2-----------------------2---------------------2-------------------------------------|
|
|  T      T           T        T     T           T      T           T        T     T           T     T                    T
|  |--3---|           |----------8:7----------|  |--3---|           |----------8:7----------|  |--3--|  |--3--|  |--------7--------|
|  T   T  T  T  T  T  T  T     T  T  T  T  T  T  T   T  T  T  T  T  T  T     T  T  T  T  T  T  T  T  T  T  T  T  T  T  T  T  T  T  T
|-19--14-19-14p12p10----------------------------19--14-19-14p12p10----------------------------19-14-19-14p12p10----------------------|
|------------------------------------------------------------------------------------------------------------------------------------|
|---------------------------------------------------------------------------------------------------------------11h12h14-16-14p12p11-|
|--------------------21-14----21-14-21-14p12p11--------------------------------------------------------------------------------------|
|------------------------------------------------------------------------------------------------------------------------------------|
|------------------------------------------------------------------17-14----17-14-17-14p12p10----------------------------------------|


 Outro
  D5
  W          +W           +W            +W
|----------|------------|------------|---------|
|----------|------------|------------|---------|
|----------|------------|------------|---------|
|----------|------------|------------|---------|
|-2--------|-(2)--------|-(2)--------|--(2)----|
|-0--------|-(0)--------|-(0)--------|--(0)----|
|
|                          <
| W           W            W            +W
|----------|------------|------------|---------|
|----------|------------|-22---------|-(22)----|
|----------|------------|------------|---------|
|----------|------------|------------|---------|
|----------|------------|------------|---------|
|----------|------------|------------|---------|


  D5
    W           +W                +W           +W
|-------------|----------------|-------------|--------------|
|-------------|----------------|-------------|--------------|
|-------------|----------------|-------------|--------------|
|-------------|----------------|-------------|--------------|
|---2---------|-(2)------------|--(2)--------|-(2)----------|
|---0---------|-(0)------------|--(0)--------|-(0)----------|
|
|                <                              <
|  +W            Q    +H.         +W            Q    +H.
|-------------|-20---(20)------|-(20)--------|-29---(29)----|
|-(22)--------|----------------|-------------|--------------|
|-------------|----------------|-------------|--------------|
|-------------|----------------|-------------|--------------|
|-------------|----------------|-------------|--------------|
|-------------|----------------|-------------|--------------|


  D5                                   D5
    PM----------------------------------------------------------------------
    s  s S S S S S s s s S S S S S s    s s s S   S  S S s s s s s s s s S
|------------------------------------|-------------------------------------|
|------------------------------------|-------------------------------------|
|------------------------------------|-------------------------------------|
|------------------------------------|-------------------------------------|
|---2--2---2---2---2-2-2---2---2---2-|--2-2---2------2---2-2-2-2---2-2-2---|
|---0--0---0---0---0-0-0---0---0---0-|--0-0---0------0---0-0-0-0---0-0-0---|
|
|                                       <
|  +W                                   Q        +H.
|-(29)-------------------------------|-21-------(21)-----------------------|
|------------------------------------|-------------------------------------|
|------------------------------------|-------------------------------------|
|------------------------------------|-------------------------------------|
|------------------------------------|-------------------------------------|
|------------------------------------|-------------------------------------|


  D5                                    D5
 -------------------------------------------------------------------------|
   s s S S   S  S S s s s S S S S S s    s s s S   S  S S s s s s s s s s S
|-------------------------------------|----------------------------------------|
|-------------------------------------|----------------------------------------|
|-------------------------------------|----------------------------------------|
|-------------------------------------|----------------------------------------|
|--2-2---2------2---2-2-2---2---2---2-|--2-2---2------2---2-2-2-2---2-2-2------|
|--0-0---0------0---0-0-0---0---0---0-|--0-0---0------0---0-0-0-0---0-0-0------|
|
|  <                                     <
|  Q        +H.                          Q        +H.
|-29-------(29)-----------------------|-17-------(17)--------------------------|
|-------------------------------------|----------------------------------------|
|-------------------------------------|----------------------------------------|
|-------------------------------------|----------------------------------------|
|-------------------------------------|----------------------------------------|
|-------------------------------------|----------------------------------------|


  D5                                   D5
    PM---------------------------------------------------------------------
    s  s S S S S S s s s S S S S S s     s  s s S S S S s s s s s s s s S
|------------------------------------|----------------------
            
Submit corrections


        Hands lessons Hard to play? Try these video lessons and learn fast Hands lessons
        
↑ Back to top | Tablatures and chords for acoustic guitar and electric guitar, ukulele, drums are parodies/interpretations of the original songs. You may use it for private study, scholarship, research or language learning purposes only