Home » B » Bullet For My Valentine »

Bullet For My Valentine - Letting You Go Tabs

Artists:  A B C D E F G H I J K L M N O P Q R S T U V W X Y Z # 

Letting You Go Tabs

(ver. 1) Click to play this song!
Bullet For My Valentine
 Rating:
4.3/5 (15 votes)
                [Intro]
D|-------|---------| 4x  
A|-------|---------|     
F|-7-----|---------|
C|-7--5--|--8--10--|    
G|-5--5--|--8--10--|    
C|----5--|--8--10--|    

 [Verse]
D|-----------------|----------------------| 3x  D|----------------|--------------|
A|---6-5-6---6-5-6-|----------------------|     A|---6-5-6---6-5-6|--------------|
F|-----------------|---10-9-10----10-9-10-|     F|----------------|---10-9-10----|
C|-0-------5-------|-8---------10---------|     C|-0-------5------|-8------------|     
G|-0-------5-------|-8---------10---------|     G|-0-------5------|-8------------|
C|-0-------5-------|-8---------10---------|     C|-0-------5------|-8------------|


 [Chorus]
D|---------------------------|-------------------------------| 2x
A|---------------------------|-------------------------------|
F|-------8\3---------8\3-----|-----8\3-----10-10---3-3-5-5-3-|
C|-0-0-0-----1-0-0-0-----1-0-|-0-0-----1-0-------0-----------|
G|-0-0-0-6\1-1-0-0-0-6\1-1-0-|-0-0-6\1-1-0-8--8--0-1-1-3-3-1-|
C|-0-0-0-----1-0-0-0-----1-0-|-0-0-----1-0-------0-----------|
     PM-]        PM-]                            PM


D|-------------------|-------------------------|-------------------|-------------------------|
A|-------------------|-------------------------|-------------------|-------------------------|
F|-14-14-14-12-12-12-|-15-15-15-15-15-15-15-15-|-12-12-12-14-14-14-|-10-10-10-10-10-10-10-10-|
C|-------------------|-------------------------|-------------------|-------------------------|
G|-12-12-12-10-10-10-|-13-13-13-13-13-13-13-13-|-10-10-10-12-12-12-|-8--8--8--8--8--8--8--8--|
C|-------------------|-------------------------|-------------------|-------------------------|


D|---------------------------|-------------------------------| 
A|---------------------------|-------------------------------|
F|-------8\3---------8\3-----|-----8\3-----10-10---3-3-5-5-3-|
C|-0-0-0-----1-0-0-0-----1-0-|-0-0-----1-0-------0-----------|
G|-0-0-0-6\1-1-0-0-0-6\1-1-0-|-0-0-6\1-1-0-8--8--0-1-1-3-3-1-|
C|-0-0-0-----1-0-0-0-----1-0-|-0-0-----1-0-------0-----------|
     PM-]        PM-]                            PM

 [Verse]
D|-----------------|----------------------| 6x  D|----------------|--------------|
A|---6-5-6---6-5-6-|----------------------|     A|---6-5-6---6-5-6|--------------|
F|-----------------|---10-9-10----10-9-10-|     F|----------------|---10-9-10----|
C|-0-------5-------|-8---------10---------|     C|-0-------5------|-8------------|     
G|-0-------5-------|-8---------10---------|     G|-0-------5------|-8------------|
C|-0-------5-------|-8---------10---------|     C|-0-------5------|-8------------|

 [Chorus]
D|---------------------------|-------------------------------| 2x
A|---------------------------|-------------------------------|
F|-------8\3---------8\3-----|-----8\3-----10-10---3-3-5-5-3-|
C|-0-0-0-----1-0-0-0-----1-0-|-0-0-----1-0-------0-----------|
G|-0-0-0-6\1-1-0-0-0-6\1-1-0-|-0-0-6\1-1-0-8--8--0-1-1-3-3-1-|
C|-0-0-0-----1-0-0-0-----1-0-|-0-0-----1-0-------0-----------|
     PM-]        PM-]                            PM

D|-------------------|-------------------------|-------------------|-------------------------|
A|-------------------|-------------------------|-------------------|-------------------------|
F|-14-14-14-12-12-12-|-15-15-15-15-15-15-15-15-|-12-12-12-14-14-14-|-10-10-10-10-10-10-10-10-|
C|-------------------|-------------------------|-------------------|-------------------------|
G|-12-12-12-10-10-10-|-13-13-13-13-13-13-13-13-|-10-10-10-12-12-12-|-8--8--8--8--8--8--8--8--|
C|-------------------|-------------------------|-------------------|-------------------------|

D|---------------------------|-------------------------------| 
A|---------------------------|-------------------------------|
F|-------8\3---------8\3-----|-----8\3-----10-10---3-3-5-5-3-|
C|-0-0-0-----1-0-0-0-----1-0-|-0-0-----1-0-------0-----------|
G|-0-0-0-6\1-1-0-0-0-6\1-1-0-|-0-0-6\1-1-0-8--8--0-1-1-3-3-1-|
C|-0-0-0-----1-0-0-0-----1-0-|-0-0-----1-0-------0-----------|
     PM-]        PM-]                            PM

 [Breakdown]
D|-----------------|-----------------|-----------------|-----------------|-----------| D|-----------------| 3x
A|-----------------|-----------------|-----------------|-----------------|-----------| A|-----------------|
F|-----------------|-----------------|-----------------|-----------------|-----------| F|-----------------|
C|-----------------|-----------------|-----------------|-----------------|-0-0--0-0--| C|-----------------|
G|-----------------|-----------------|-----------------|-----------------|-0-0--0-0--| G|-----------------|
C|-0-0-0-0-0-0-0-0-|-0-0-0-0-0-0-0-0-|-0-0-0-0-0-0-0-0-|-0-0-0-0-0-0-0-0-|-0-0--0-0--| C|-0-0-0-0-0-0-0-0-|


 [pre-Chorus]
D|-----------------|----------------------|----------------|--------------|
A|---6-5-6---6-5-6-|----------------------|---6-5-6---6-5-6|--------------|
F|-----------------|---10-9-10----10-9-10-|----------------|---10-9-10----|
C|-0-------5-------|-8---------10---------|-0-------5------|-8------------|     
G|-0-------5-------|-8---------10---------|-0-------5------|-8------------|
C|-0-------5-------|-8---------10---------|-0-------5------|-8------------|  


D|-------------------|-------------------------|-------------------|--------------------|4x
A|-------------------|-------------------------|-------------------|--------------------|
F|-14-14-14-12-12-12-|-15-15-15-15-15-15-15-15-|-12-12-12-14-14-14-|-10-10-10-9-9-9-9-9-|
C|-------------------|-------------------------|-------------------|--------------------|
G|-12-12-12-10-10-10-|-13-13-13-13-13-13-13-13-|-10-10-10-12-12-12-|-8--8--8--7-7-7-7-7-|
D|-------------------|-------------------------|-------------------|--------------------| 


 [Chorus]
D|---------------------------|-------------------------------| 2x
A|---------------------------|-------------------------------|
F|-------8\3---------8\3-----|-----8\3-----10-10---3-3-5-5-3-|
C|-0-0-0-----1-0-0-0-----1-0-|-0-0-----1-0-------0-----------|
G|-0-0-0-6\1-1-0-0-0-6\1-1-0-|-0-0-6\1-1-0-8--8--0-1-1-3-3-1-|
C|-0-0-0-----1-0-0-0-----1-0-|-0-0-----1-0-------0-----------|
     PM-]        PM-]                            PM

 [Outro]
D|-------|---------| 
A|-------|---------|     
F|-7-----|---------|
C|-7--5--|--8--10--|    
G|-5--5--|--8--10--|    
C|----5--|--8--10--|               
Submit corrections

↑ Back to top | Tablatures and chords for acoustic guitar and electric guitar, ukulele, drums are parodies/interpretations of the original songs. You may use it for private study, scholarship, research or language learning purposes only