Home » B » Bullet For My Valentine »

Bullet For My Valentine - Leap Of Faith Tabs

Artists:  A B C D E F G H I J K L M N O P Q R S T U V W X Y Z # 

Leap Of Faith Tabs

(ver. 1) Click to play this song!
Bullet For My Valentine
 Rating:
4.3/5 (18 votes)
                 [Intro]
C#|-10---|-8---13-12--|2x
G#|------|------------|
E |------|------------|
B |------|------------|
F#|------|------------|
B |------|------------|


C#|-----------------|-12--10--8-|-----------------|-12-10-8-|-13-15-17-10-|-18-17-15-13-12-|
G#|-----------------|-----------|-----------------|---------|-------------|----------------|
E |-----------------|-----------|-----------------|---------|-------------|----------------|
B |-0-0-0-0-0-0-0-0-|-----------|-0-0-0-0-0-0-0-0-|---------|-------------|----------------|
F#|-0-0-0-0-0-0-0-0-|-----------|-0-0-0-0-0-0-0-0-|---------|-------------|----------------|
B |-0-0-0-0-0-0-0-0-|-----------|-0-0-0-0-0-0-0-0-|---------|-------------|----------------|

  PM,--------------]             PM,--------------]


C#|-------|-------|---------|-----------|
G#|-------|-------|---------|-----------|
E |-------|-------|---------|-----------|
B |-8-8-8-|-5-5-5-|-0-0-0-0-|-0-0-10-10-|
F#|-8-8-8-|-5-5-5-|-0-0-0-0-|-0-0-10-10-|
B |-8-8-8-|-5-5-5-|-0-0-0-0-|-0-0-10-10-|

 [Verse]
C#|----13-12-10-|----13-12-|-----------------|----|-----------------|----|-----------------|----|
G#|-13----------|-13-------|-----------------|----|-----------------|----|-----------------|----|
E |-------------|----------|-----------------|----|-----------------|----|-----------------|----|
B |-------------|----------|-0-0-0-0-0-0-0-0-|----|-0-0-0-0-0-0-0-0-|----|-0-0-0-0-0-0-0-0-|----|
F#|-------------|----------|-0-0-0-0-0-0-0-0-|----|-0-0-0-0-0-0-0-0-|----|-0-0-0-0-0-0-0-0-|----|
B |-------------|----------|-0-0-0-0-0-0-0-0-|----|-0-0-0-0-0-0-0-0-|----|-0-0-0-0-0-0-0-0-|----|

                            PM,--------------]     PM,--------------]     PM,--------------]


C#|-----------------|-------|
G#|-----------------|-------|
E |-----------------|-------|
B |-0-0-0-0-0-0-0-0-|-0-0-0-|
F#|-0-0-0-0-0-0-0-0-|-0-0-0-|
B |-0-0-0-0-0-0-0-0-|-0-0-0-|

   PM,----------------------]

 [Chorus]
C#|-13-15-17-10-|-18-17-15-13-12-|-------|-------|---------|-----------|---------|-------------|---------|
G |-------------|----------------|-------|-------|---------|-----------|---------|-------------|---------|
E |-------------|----------------|-------|-------|---------|-----------|---------|-------------|---------|
B |-------------|----------------|-8-8-8-|-5-5-5-|-0-0-0-0-|-0-0-10-10-|-8-8-8-8-|-10-10-10-10-|-0-0-0-0-|
F#|-------------|----------------|-8-8-8-|-5-5-5-|-0-0-0-0-|-0-0-10-10-|-8-8-8-8-|-10-10-10-10-|-0-0-0-0-|
B |-------------|----------------|-8-8-8-|-5-5-5-|-0-0-0-0-|-0-0-10-10-|-8-8-8-8-|-10-10-10-10-|-0-0-0-0-|

 
C#|-------------|---------|-------------------|
G#|-------------|---------|-------------------|
E |-------------|---------|-------------------|
B |-10-10-10-10-|-8-8-5-5-|-0-0-0-0-0-0-10-10-|
F#|-10-10-10-10-|-8-8-5-5-|-0-0-0-0-0-0-10-10-|
B |-10-10-10-10-|-8-8-5-5-|-0-0-0-0-0-0-10-10-|


 [Breakdown]
C#|-----------------|-----------------|-----------------|-----------------|-------| 3x |---------------------|
G#|-----------------|-----------------|-----------------|-----------------|-------|    |---------------------|
E |-----------------|-----------------|-----------------|-----------------|-------|    |---------------------|
B |-0-0-0-0-0-0-0-0-|-0-0-0-0-0-0-0-0-|-0-0-0-0-0-0-0-0-|-0-0-0-0-0-0-0-0-|-0-0-0-|    |-0-0-0-0-10-10-10-10-|
F#|-0-0-0-0-0-0-0-0-|-0-0-0-0-0-0-0-0-|-0-0-0-0-0-0-0-0-|-0-0-0-0-0-0-0-0-|-0-0-0-|    |-0-0-0-0-10-10-10-10-|
B |-0-0-0-0-0-0-0-0-|-0-0-0-0-0-0-0-0-|-0-0-0-0-0-0-0-0-|-0-0-0-0-0-0-0-0-|-0-0-0-|    |-0-0-0-0-10-10-10-10-|

   PM,------------------------------------------------------------------------------------------------] 


C#|-13-15-17-10-|-18-17-15-13-12-|
G#|-------------|----------------|
E |-------------|----------------|
B |-------------|----------------|
F#|-------------|----------------|
B |-------------|----------------|

 [Outro]
C#|---------|---------|---------|---------|---------|-------------| 5x   
G#|---------|---------|---------|---------|---------|-------------|
E |---------|---------|---------|---------|---------|-------------|
B |-8-8-8-8-|-8-8-5-5-|-5-5-5-5-|-0-0-0-0-|-0-0-0-0-|-10-10-10-10-|
F#|-8-8-8-8-|-8-8-5-5-|-5-5-5-5-|-0-0-0-0-|-0-0-0-0-|-10-10-10-10-|
B |-8-8-8-8-|-8-8-5-5-|-5-5-5-5-|-0-0-0-0-|-0-0-0-0-|-10-10-10-10-|

            
Submit corrections

↑ Back to top | Tablatures and chords for acoustic guitar and electric guitar, ukulele, drums are parodies/interpretations of the original songs. You may use it for private study, scholarship, research or language learning purposes only