Home » B » Bullet For My Valentine »

Bullet For My Valentine - Broken Tabs

Artists:  A B C D E F G H I J K L M N O P Q R S T U V W X Y Z # 

Broken Tabs

(ver. 1) Click to play this song!
Bullet For My Valentine
 Rating:
2.8/5 (20 votes)
                Intro           (0:00 - 0:23)
Verse 1         (0:23 - 0:44)
Pre-Chorus      (0:44 - 0:55)
Chorus          (0:55 - 1:17)
Pre-Verse       (1:17 - 1:28)
Verse 2         (1:28 - 1:50)
Pre-Chorus      (1:50 - 2:01)
Chorus          (2:01 - 2:23)
Pre-Solo        (2:23 - 2:33)
Solo            (2:33 - 2:55)
Verse Variation (2:55 - 3:06)
Chorus          (3:06 - 3:28)
Outro           (3:28 - 3:36)





Intro (0:00 - 0:23)

*Both guitars pickslide or slide or... whatever to lead in*

Guitar 1

   1   &   2   &   3   &   4   &     1   &   2   &   3   &   4   &    
D|---------------------------------|---------------------------------|
A|---------------------------------|---------------------------------|
F|---------------------------------|---------------------------------|
C|---------------------------------|---------------------------------|
G|-2-2-2-2-2-2-2-2-2-------2-2-2-2-|-2-2-2-2-2-----------------------|---|
C|-2-2-2-2-2-2-2-2-2-------2-2-2-2-|-2-2-2-2-2-----------------------|   |
   . . . . . . . . .       . . . .   . . . . .                           |
YEAHHHH!                                                                 | x2
                                                                         |
   1   &   2   &   3   &   4   &     1   &   2   &   3   &   4   &       |
D|---------------------------------|---------------------------------|   |
A|---------------------------------|--------------(Second time, do a |---|
F|---------------------------------|---------------fancy slide thingy)
C|---------------------------------|-----------------x---x-------x---|
G|-2-2-2-2-2-2-2-2-2-------2-2-2-2-|-2-2-2-2-2-------x---x-------x---|
C|-2-2-2-2-2-2-2-2-2-------2-2-2-2-|-2-2-2-2-2-------x---x-------x---|
   . . . . . . . . .       . . . .   . . . . .

   1   &   2   &   3   &   4   &     1   &   2   &   3   &   4   &    
D|---------------------------------|---------------------------------|
A|---------------------------------|---------------------------------|
F|---------------------------------|---------------------------------| x3
C|-------------5p2-----------------|---------------------------------|
G|---------------------------------|---------------------------------|
C|-0h2-2-2-2-2-----2-2-2-2-0h2-2-2-|-2-2-5p2-2-2-2-2-0h2-2-2-0h2-2-2-|
       . . . .     . . . .     . .   . .     . . . .     . .     . .

   1   &   2   &   3   &   4   &     1   &   2   &   3   &   4   &    
D|---------------------------------|---------------------------------|
A|---------------------------------|---------------------------------|
F|---------------------------------|---------------------------------|
C|---------------------------------|-----5p2-------------------------|
G|---------------------------------|---------------------------------|
C|-0h2-2-2-2-2-5p2-2-2-2-2-0h2-2-2-|-2-2-----2-2-2-2-0h2-2-2-0h2-2-2-|
       . . . .     . . . .     . .   . .     . . . .     . .     . .

Guitar 2

   1   &   2   &   3   &   4   &     1   &   2   &   3   &   4   &    
D|---------------------------------|---------------------------------|
A|---------------------------------|---------------------------------|
F|---------------------------------|---------------------------------| x4
C|-------------5p2-----------------|-----5p2-------------------------|
G|---------------------------------|---------------------------------|
C|-0h2-2-2-2-2-----2-2-2-2-0h2-2-2-|-2-2-----2-2-2-2-2-2-2-2-2-2-2-2-|
       . . . .     . . . .     . .   . .     . . . . . . . . . . . .
YEAHHHH!

   1   &   2   &   3   &   4   &     1   &   2   &   3   &   4   &    
D|---------------------------------|---------------------------------|
A|---------------------------------|---------------------------------|
F|---------------------------------|---------------------------------| x3
C|-------------5p2-----------------|---------------------------------|
G|---------------------------------|---------------------------------|
C|-0h2-2-2-2-2-----2-2-2-2-0h2-2-2-|-2-2-5p2-2-2-2-2-0h2-2-2-0h2-2-2-|
       . . . .     . . . .     . .   . .     . . . .     . .     . .

   1   &   2   &   3   &   4   &     1   &   2   &   3   &   4   &    
D|---------------------------------|---------------------------------|
A|---------------------------------|---------------------------------|
F|---------------------------------|---------------------------------|
C|---------------------------------|-----5p2-------------------------|
G|---------------------------------|---------------------------------|
C|-0h2-2-2-2-2-5p2-2-2-2-2-0h2-2-2-|-2-2-----2-2-2-2-0h2-2-2-0h2-2-2-|
       . . . .     . . . .     . .   . .     . . . .     . .     . .





Verse 1 (0:23 - 0:44)

Guitar 1

   1   &   2   &   3   &   4   &     1   &   2   &   3   &   4   &    
D|---------------------------------|---------------------------------|
A|---------------------------------|---------------------------------|
F|---------------------------------|---------------------------------|
C|-------------101010101010--------|-----9-9-9-9-9-9-9-9-9-9-9-9-9-9-|
G|-7-7-7-7-7-7-------------7-7-7-7-|-7-7-----------------------------|---|
C|---------------------------------|---------------------------------|   |
   . . . . . . . . . . . . . . . .   . . . . . . . . . . . . . . . .     |
Sitting here alone...                                                    |
                                                                         |
   1   &   2   &   3   &   4   &     1   &   2   &   3   &   4   &       |
D|---------------------------------|---------------------------------|   |
A|---------------------------------|---------------------------------|   |
F|---------------------------------|---------------------------------|   |
C|-------------7-7-7-7-7-7---------|-----5-5-5-5-5-5-7-7-7-7-5-5-5-5-|   |
G|-5-5-5-5-5-5-------------3-3-3-3-|-3-3-----------------------------|   |
C|---------------------------------|---------------------------------|   |
   . . . . . . . . . . . . . . . .   . . . . . . . . . . . . . . . .     |
...nothing left to say.                                                  | x2
                                                                         |
   1   &   2   &   3   &   4   &     1   &   2   &   3   &   4   &       |
D|---------------------------------|---------------------------------|   |
A|---------------------------------|---------------------------------|   |
F|---------------------------------|---------------------------------|   |
C|-------------101010101010--------|-----9-9-9-9-9-9-9-9-9-9-9-9-9-9-|   |
G|-7-7-7-7-7-7-------------7-7-7-7-|-7-7-----------------------------|   |
C|---------------------------------|---------------------------------|   |
   . . . . . . . . . . . . . . . .   . . . . . . . . . . . . . . . .     |
Staring at the walls...                                                  |
                                                                         |
   1   &   2   &   3   &   4   &     1   &   2   &   3   &   4   &       |
D|---------------------------------|---------------------------------|   |
A|---------------------------------|---------------------------------|---|
F|---------------------------------|---------------------------------|
C|-------------7-7-7-7-7-7---------|-----5-5-5-5-5-5-7-7-7-7-9-9-9-9-|
G|-5-5-5-5-5-5-------------3-3-3-3-|-3-3-----------------------------|
C|---------------------------------|---------------------------------|
   . . . . . . . . . . . . . . . .   . . . . . . . . . . . . . . . .
...make them go away!

Guitar 2

   1   &   2   &   3   &   4   &     1   &   2   &   3   &   4   &    
D|-7+------------------------------|---------------------------------|
A|-------------------------7+------|(7+)-----------------------------|
F|---------------------------------|---------------------------------|
C|---------------------------------|---------------------------------|
G|---------------------------------|---------------------------------|---|
C|---------------------------------|---------------------------------|   |
                                                                         |
Sitting here alone...                                                    | x3
                                                                         |
   1   &   2   &   3   &   4   &     1   &   2   &   3   &   4   &       |
D|---------------------------------|---------------------------------|   |
A|---------------------------------|---------------------------------|---|
F|-7+------------------------------|---------------------------------|
C|-------------------------7+------|(7+)-----------------------------|
G|---------------------------------|---------------------------------|
C|---------------------------------|---------------------------------|

...nothing left to say.

   1   &   2   &   3   &   4   &     1   &   2   &   3   &   4   &    
D|-7+------------------------------|---------------------------------|
A|-------------------------7+------|(7+)-----------------------------|
F|---------------------------------|---------------------------------|
C|---------------------------------|---------------------------------|
G|---------------------------------|---------------------------------|
C|---------------------------------|---------------------------------|

I have to break this silence

   1   &   2   &   3   &   4   &     1   &   2   &   3   &   4   &    
D|---------------------------------|---------5+----------------------|
A|-------------------------5+------|(5+)-----------------------------|
F|-7+------------------------------|---------------------------------|
C|---------------------------------|---------------------------------|
G|---------------------------------|---------------------------------|
C|---------------------------------|---------------------------------|

Empty out my lungs                           I WILL BE...






Pre-Chorus (0:44 - 0:55)

Guitar 1

   1   &   2   &   3   &   4   &     1   &   2   &   3   &   4   &    
D|---------------------------------|---------------------------------|
A|---------------------------------|---------------------------------|
F|---------------------------------|---------------------------------|
C|---------------------------------|---------------------------------|
G|-2-2-2-2-2-2-2-2-2-------2-2-2-2-|-2-2-2-2-2-----------------------|
C|-2-2-2-2-2-2-2-2-2-------2-2-2-2-|-2-2-2-2-2-----------------------|
   . . . . . . . . .       . . . .   . . . . .                        
...HEEEEEEEAAAAAARD!                                                  
                                                                      
   1   &   2   &   3   &   4   &     1   &   2   &   3   &   4   &    
D|---------------------------------|---------------------------------|
A|---------------------------------|---------------------------------|
F|---------------------------------|---------------------------------|
C|---------------------------------|-----------------x---x-------x---|
G|-2-2-2-2-2-2-2-2-2-------2-2-2-2-|-2-2-2-2-2-------x---x-------x---|
C|-2-2-2-2-2-2-2-2-2-------2-2-2-2-|-2-2-2-2-2-------x---x-------x---|
   . . . . . . . . .       . . . .   . . . . .
DON'T HOLD ME BACK                   DON'T TRY AND...

   1   &   2   &   3   &   4   &     1   &   2   &   3   &   4   &    
D|---------------------------------|---------------------------------|
A|---------------------------------|---------------------------------|
F|---------------------------------|---------------------------------|
C|---------------------------------|---------------------------------|
G|-2-2-2-2-2-2-2-2-2-------2-2-2-2-|-2-2-2-2-2-----------------------|
C|-2-2-2-2-2-2-2-2-2-------2-2-2-2-|-2-2-2-2-2-----------------------|
   . . . . . . . . .       . . . .   . . . . .                        
...PACIFYYYYYY!                                        

   1   &   2   &   3   &   4   &     1   &   2   &   3   &   4   &    
D|---------------------------------|---------------------------------|
A|---------------------------------|---------------------------------|
F|---------------------------------|---------------------------------|
C|---------------------------------|-----------------x---x---x---2~--|
G|-2-2-2-2-2-2-2-2-2-------2-2-2-2-|-2-2-2-2-2-------x---x---x---2~--|
C|-2-2-2-2-2-2-2-2-2-------2-2-2-2-|-2-2-2-2-2-------x---x---x---2~--|
   . . . . . . . . .       . . . .   . . . . .
THIS MIGHT BE HARD TO HEAR!

Guitar 2

   1   &   2   &   3   &   4   &     1   &   2   &   3   &   4   &    
D|---------------------------------|-----------------------------12--|
A|-------------6~~~~~~~~~~~~~~~~~~~|(6)~~6~~~~~~~~~~~~~~~~~~~~~~~~~~~|
F|-9~~~~~~~~~~~~~~~~~~~~~~~9~~~~~~~|(9)~~~~~~~~~~~~~~~~~~~~~~~~~~~~~~| x4
C|---------------------------------|-----------------x---x---x-------|
G|---------------------------------|(Last time, play)x---x---x-------|
C|---------------------------------|-----------------x---x---x-------|

...HEEEEEEEAAAAAARD!






Chorus (0:55 - 1:17)

Guitar 1

   1   &   2   &   3   &   4   &     1   &   2   &   3   &   4   &    
D|---------------------------------|---------------------------------|
A|---------------------------------|---------------------------------|
F|---------------------------------|---------------------------------|
C|(2)--------------5p--4-------2~--|(2)--------------5p--4-------0~--|
G|(2)--0---2---0-----------0---2~--|(2)--0---2---0-----------0---0~--|---|
C|(2)--0---2---0-----------0---2~--|(2)--0---2---0-----------0---0~--|   |
       .   .   .           .             .   .   .           .           |
Don't try and heal me...                                                 |
                                                                         |
   1   &   2   &   3   &   4   &     1   &   2   &   3   &   4   &       |
D|---------------------------------|---------------------------------|   |
A|---------------------------------|---------------------------------|   |
F|---------------------------------|-5~------------------------------|   |
C|(0)------------------------------|-5~--------------------------2~--|   |
G|(0)------------------------------|-3~--------------------------2~--|   |
C|(0)------------------------------|-----------------------------2~--|   |
                                                                         |
...brooooooooookeeeeeeeen!                                               | x2
                                                                         |
   1   &   2   &   3   &   4   &     1   &   2   &   3   &   4   &       |
D|---------------------------------|---------------------------------|   |
A|---------------------------------|---------------------------------|   |
F|---------------------------------|---------------------------------|   |
C|(2)--------------5p--4-------2~--|(2)--------------5p--4-------0~--|   |
G|(2)--0---2---0-----------0---2~--|(2)--0---2---0-----------0---0~--|   |
C|(2)--0---2---0-----------0---2~--|(2)--0---2---0-----------0---0~--|   |
       .   .   .           .             .   .   .           .           |
I need to hurt...                                                        |
                                                                         |
   1   &   2   &   3   &   4   &     1   &   2   &   3   &   4   &       |
D|---------------------------------|---------------------------------|   |
A|---------------------------------|---------------------------------|---|
F|---------------------------------|-5~------------------------------|
C|(0)------------------------------|-5~--------------5---5---5---2~--|
G|(0)------------------------------|-3~--------------3---3---3---2~--|
C|(0)------------------------------|-----------------------------2~--|
                                                     .   .   .
...feel... feel anything!                           Second time, play a C power chord here
                                                    instead of the muted A#s and don't play
                                                    the last D power chord.

Guitar 2

   1   &   2   &   3   &   4   &     1   &   2   &   3   &   4   &    
D|-12--12--12--12--12--12--12--12--|-12--12--12--12--12--12--12--12--|
A|---------------------------------|---------------------------------|
F|---------------------------------|---------------------------------|
C|---------------------------------|---------------------------------|
G|---------------------------------|---------------------------------|---|
C|---------------------------------|---------------------------------|   |
                                                                         |
Don't try and heal me...                                                 | x4
                                                                         |
   1   &   2   &   3   &   4   &     1   &   2   &   3   &   4   &       |
D|-14--14--14--14--14--14--14--14--|-10--10--12--12--12--12--12--12--|   |
A|---------------------------------|---------------------------------|---|
F|---------------------------------|-(the second playthrough,--------|
C|---------------------------------|-- just play 10s here)   --------|
G|---------------------------------|---------------------------------|
C|---------------------------------|---------------------------------|

...broken!





Pre-Verse (1:17 - 1:28) - Same as the second half of the intro

Verse 2 (1:28 - 1:50) - Same as Verse 1

Pre-Chorus (1:50 - 2:01)

Chorus (2:01 - 2:23)





Pre-Solo        (2:23 - 2:33)

   1   &   2   &   3   &   4   &     1   &   2   &   3   &   4   &    
D|---------------------------------|---------------------------------|
A|---------------------------------|---------------------------------|
F|---------------------------------|---------------------------------|
C|---------------------------------|---------------------------------|
G|---------------------------------|---------------------------------|
C|---------------------------------|---------------------------------|

   1   &   2   &   3   &   4   &     1   &   2   &   3   &   4   &    
D|---------------------------------|---------------------------------|
A|---------------------------------|---------------------------------|
F|---------------------------------|---------------------------------|
C|---------------------------------|-----------------------------0~--|
G|---------------------------------|-----------------0---0---0---0~--|
C|---------------------------------|-----------------0---0---0---0~--|
                                                     .   .   .   
   1   &   2   &   3   &   4   &     1   &   2   &   3   &   4   &    
D|---------------------------------|---------------------------------|
A|---------------------------------|---------------------------------|
F|---------------------------------|---------------------------------|
C|(0)------------------------------|(0)------------------------------|
G|(0)------------------------------|(0)------------------------------|
C|(0)------------------------------|(0)------------------------------|

   1   &   2   &   3   &   4   &     1   &   2   &   3   &   4   &    
D|---------------------------------|---------------------------------|
A|---------------------------------|---------------------------------|
F|---------------------------------|---------------------------------|
C|\\\\\\\\\\\\\\\\\\\\\\\\\\\\\\\\\|\\\\\\\\\\\\\\\\\\\\\\\\\\\\\\\\\|
G|\\\\\\\\\\\\\\\\\\\\\\\\\\\\\pickslide\\\\\\\\\\\\\\\\\\\\\\\\\\\\\|
C|\\\\\\\\\\\\\\\\\\\\\\\\\\\\\\\\\|\\\\\\\\\\\\\\\\\\\\\\\\\\\\\\\\\|

Guitar 2

   1   &   2   &   3   &   4   &     1   &   2   &   3   &   4   &    
D|t19p5h7-t17p5h7-t15p5h7-t14p5h7--|t15p5h7-t17p5h7-t15p5h7-t14p5h7--|
A|---------------------------------|---------------------------------|
F|---------------------------------|---------------------------------|
C|---------------------------------|---------------------------------|
G|---------------------------------|---------------------------------|
C|---------------------------------|---------------------------------|

   1   &   2   &   3   &   4   &     1   &   2   &   3   &   4   &    
D|t12p5h7-t11p5h7-t12p5h7-t14p5h7--|t15p5h7-t17p5h7-t15p5h7-t14p5h7--|
A|---------------------------------|---------------------------------|
F|---------------------------------|---------------------------------|
C|---------------------------------|---------------------------------|
G|---------------------------------|---------------------------------|
C|---------------------------------|---------------------------------|

   1   &   2   &   3   &   4   &     1   &   2   &   3   &   4   &    
D|t19p5h7-t17p5h7-t15p5h7-t14p5h7--|t15p5h7-t17p5h7-t15p5h7-t14p5h7--|
A|---------------------------------|---------------------------------|
F|---------------------------------|---------------------------------|
C|---------------------------------|---------------------------------|
G|---------------------------------|---------------------------------|
C|---------------------------------|---------------------------------|

   1   &   2   &   3   &   4   &     1   &   2   &   3   &   4   &    
D|t12p5h7-t11p5h7-t12p5h7-t14p5h7--|t15p5h7-t17p5h7-t19p5h7-t20p5h7--|
A|---------------------------------|---------------------------------|
F|---------------------------------|---------------------------------|
C|---------------------------------|---------------------------------|
G|---------------------------------|---------------------------------|
C|---------------------------------|---------------------------------|




Solo (2:33 - 2:55)

Guitar 1

   1   &   2   &   3   &   4   &     1   &   2   &   3   &   4   &    
D|---------------------------------|---------------------------------|
A|---------------------------------|---------------------------------|
F|---------------------------------|---------------------------------| x2
C|-2~----------2~----------2~------|-2~----------2~----------2~------|
G|-2~--2-2-2-2-2~----------2~------|-2~--2-2-2-2-2~----------2~------|
C|-2~--2-2-2-2-2~----------2~------|-2~--2-2-2-2-2~----------2~------|
       . . . .                           . . . .

   1   &   2   &   3   &   4   &     1   &   2   &   3   &   4   &    
D|---------------------------------|---------------------------------|
A|-6~----------6~----------6~------|-5~----------5~----------5~------|
F|-3~----------3~----------3~------|-2~----------2~----------2~------|
C|-0~----------0~----------0~------|-0~----------0~----------0~------|
G|-0~--0-0-0-0-0~----------0~------|-0~--0-0-0-0-0~----------0~------|
C|-0~--0-0-0-0-0~----------0~------|-0~--0-0-0-0-0~----------0~------|
       . . . .                           . . . .

   1   &   2   &   3   &   4   &     1   &   2   &   3   &   4   &    
D|---------------------------------|---------------------------------|
A|---------------------------------|---------------------------------|
F|---------------------------------|---------------------------------|
C|-3~----------3~----------3~------|-----------------3~------5~------|
G|-3~--3-3-3-3-3~----------3~------|-----------------3~------5~------|
C|-3~--3-3-3-3-3~----------3~------|-----------------3~------5~------|
       . . . .

   1   &   2   &   3   &   4   &     1   &   2   &   3   &   4   &    
D|---------------------------------|---------------------------------|
A|---------------------------------|---------------------------------|
F|---------------------------------|---------------------------------| x2
C|-2~----------2~------------------|-2~----------2~------------------|
G|-2~--2-2-2-2-2~------2---2---2-2-|-2~--2-2-2-2-2~------2---2---2-2-|
C|-2~--2-2-2-2-2~------2---2---2-2-|-2~--2-2-2-2-2~------2---2---2-2-|
       . . . .         .   .   . .       . . . .         .   .   . .

   1   &   2   &   3   &   4   &     1   &   2   &   3   &   4   &    
D|---------------------------------|---------------------------------|
A|-6~----------6~----------6~------|-5~----------5~----------5~------|
F|-3~----------3~----------3~------|-2~----------2~----------2~------|
C|-0~----------0~----------0~------|-0~----------0~----------0~------|
G|-0~--0-0-0-0-0~----------0~------|-0~--0-0-0-0-0~----------0~------|
C|-0~--0-0-0-0-0~----------0~------|-0~--0-0-0-0-0~----------0~------|
       . . . .                           . . . .

   1   &   2   &   3   &   4   &     1   &   2   &   3   &   4   &    
D|---------------------------------|---------------------------------|
A|---------------------------------|---------------------------------|
F|---------------------------------|---------------------------------|
C|-3~----------3~----------3~------|-----------------3~------5~------|
G|-3~--3-3-3-3-3~----------3~------|-3-3-3-3-3-3-3-3-3~------5~------|
C|-3~--3-3-3-3-3~----------3~------|-3-3-3-3-3-3-3-3-3~------5~------|
       . . . .                       . . . . . . . .

Guitar 2

   1   &   2   &   3   &   4   &     1   &   2   &   3   &   4   &    
D|-7~~~~~~~~~~~7~~~~~~~~~~~7~~~~~~~|~6~~~~~~~~~~~6~~~~~~(slide to 12)|
A|-10^12~~~~~~~10^12~~~~~~~10^12~~~|~9^11~~~~~~~~9^11~~~-------------|
F|---------------------------------|---------------------------------|
C|---------------------------------|---------------------------------|
G|---------------------------------|---------------------------------|
C|---------------------------------|---------------------------------|

   1    &     2    &    3     &    4   &       1    &   2    &   3   &   4   &    
D|-12-8-10-12-10-8-----------------8---------|---------------------------12--14--|
A|-----------------12-8-10-12-10-8---8-10-12-|-10-8------------------------------|
F|-------------------------------------------|------9-7-9-10-9-7-9~--------------|
C|-------------------------------------------|-----------------------------------|
G|-------------------------------------------|-----------------------------------|
C|-------------------------------------------|-----------------------------------|

   1   &   2   &   3   &   4   &     1   &   2   &   3   &   4   &    
D|-15~-----14--15--17~-----15--17--|-19~-----17--15--17~-----15--14--|
A|---------------------------------|---------------------------------|
F|---------------------------------|---------------------------------|
C|---------------------------------|---------------------------------|
G|---------------------------------|---------------------------------|
C|---------------------------------|---------------------------------|

   1     &     2     &     3     &     4     &       1     &     2     &     3   &   4   &    
D|-14h15p14p12----12-14h15p14p12----12-14h15p14p12-|----12-14h15p14p12----12-12~~~~~~~~~~~~~~|
A|-------------15----------------15----------------|-15----------------15--------------------|
F|-------------------------------------------------|-----------------------------------------|
C|-------------------------------------------------|-----------------------------------------|
G|-------------------------------------------------|-----------------------------------------|
C|-------------------------------------------------|-----------------------------------------|

   1     &     2     &     3     &     4     &       1     &     2     &     3     &     4     &      
D|-------------------------------------------------|-------------------------------------------------|
A|-------------------------------------------------|-------------------------------------------------|
F|----------------------------------------------14-|-15-17-15-14----14----------------14-15-17-14-15-|
C|----------------------------12-14-15-14-15-17----|-------------17----17-15-14-15-17----------------|
G|----------12-14-15-12-14-15----------------------|-------------------------------------------------|
C|-12-14-15----------------------------------------|-------------------------------------------------|

   1     &     2     &     3     &     4     &       1     &     2     &     3     &     4     &      
D|----------------------17-19-20-19-17----17-------|----------17-20-20-19-17-19~---------------------|
A|----17-18-20-17-18-20----------------20----20-18-|-17-18-20----------------------------------------|
F|-17----------------------------------------------|-------------------------------------------------|
C|-------------------------------------------------|---------(beware the double 20)*-----------------|
G|-------------------------------------------------|-------------------------------------------------|
C|-------------------------------------------------|-------------------------------------------------|

*Feel free to play the more natural 17-19-20-19-17, as I'm almost 100% certain that's what it was meant to be
 but I think Padge may have slipped up while recording this. You can even hear the slight 19th to
20th "slide". But then, why would they leave it in the finished product? Conspiracies...

   1   &   2   &   3   &   4   &     1     &     2     &     3     &     4     &      
D|-12~~~~~~~~~~12~~~~~~~~~~14~~~~~~|----------15-17-19----------17-19-20-19-17----17-|
A|-15^17~~~~~~~15^17~~~~~~~17^19~~~|-15-17-18----------17-18-20----------------20----|
F|---------------------------------|-------------------------------------------------|
C|---------------------------------|-------------------------------------------------|
G|---------------------------------|-------------------------------------------------|
C|---------------------------------|-------------------------------------------------|

   1   &   2   &   3   &   4   &     1   &   2   &   3   &   4   &    
D|-17~~~~~~~~~~17~~~~~~~~~~18~~~~~~|~~~~~18~~~~~~~~~~18~~~~~~~~~~~~~~|
A|-20^22~~~~~~~20^22~~~~~~~21^23~~~|~~~~~21^23~~~~~~~21^23~~~~~~~~~~~|
F|---------------------------------|---------------------------------|
C|---------------------------------|---------------------------------|
G|---------------------------------|---------------------------------|
C|---------------------------------|---------------------------------|






Verse Variation (2:55 - 3:06)

Guitar 1

   1   &   2   &   3   &   4   &     1   &   2   &   3   &   4   &    
D|---------------------------------|---------------------------------|
A|---------------------------------|---------------------------------|
F|---------------------------------|---------------------------------|
C|-2~------(for however long)------|-----------------------------2~--|
G|-2~------------------------------|-----------------2---2---2---2~--|
C|-2~------------------------------|-----------------2---2---2---2~--|
                                                     .   .   .   
Sitting here alone...

Guitar 2

   1   &   2   &   3   &   4   &     1   &   2   &   3   &   4   &    
D|-7+------------------------------|---------------------------------|
A|-------------------------7+------|(7+)-----------------------------|
F|---------------------------------|---------------------------------|
C|---------------------------------|---------------------------------|
G|---------------------------------|---------------------------------|
C|---------------------------------|---------------------------------|

   1   &   2   &   3   &   4   &     1   &   2   &   3   &   4   &    
D|---------------------------------|---------------------------------|
A|---------------------------------|---------------------------------|
F|-7+------------------------------|---------------------------------|
C|-------------------------7+------|(7+)-----------------------------|
G|---------------------------------|---------------------------------|
C|---------------------------------|---------------------------------|

   1   &   2   &   3   &   4   &     1   &   2   &   3   &   4   &    
D|-7+------------------------------|---------------------------------|
A|-------------------------7+------|(7+)-----------------------------|
F|---------------------------------|---------------------------------|
C|---------------------------------|---------------------------------|
G|---------------------------------|---------------------------------|
C|---------------------------------|---------------------------------|

   1   &   2   &   3   &   4   &     1   &   2   &   3   &   4   &    
D|-------------------------5+------|(5+)-------------9+--9+--9+--12--|
A|-5+------------------------------|---------------------------------|
F|---------------------------------|---------------------------------|
C|---------------------------------|---------------------------------|
G|---------------------------------|---------------------------------|
C|---------------------------------|---------------------------------|






Chorus (3:06 - 3:28)

Outro (3:28 - 3:36) - Same as intro, with a difference at the very end:

Guitars 1 and 2

   1   &   2   &   3   &   4   &     1   &   2   &   3   &   4   &    
D|---------------------------------|---------------------------------|
A|---------------------------------|---------------------------------|
F|---------------------------------|---------------------------------|
C|---------------------------------|---------------------------------|
G|-2-2-2-2-2-2-2-2-2-------2-2-2-2-|-2-2-2-2-2-----------------------|
C|-2-2-2-2-2-2-2-2-2-------2-2-2-2-|-2-2-2-2-2-----------------------|
   . . . . . . . . .       . . . .   . . . . .            
Submit corrections

↑ Back to top | Tablatures and chords for acoustic guitar and electric guitar, ukulele, drums are parodies/interpretations of the original songs. You may use it for private study, scholarship, research or language learning purposes only